Guitaretab - guitar tabs
Song name
# A B C D E F G H I J K L M N O P Q R S T U V W X Y Z

Wisdom Call - Never Satisfied tab

Song:Never Satisfied
  http://www.myspace.com/wisdomcall	
  Band:Wisdom Call
  CD:Wisdom Call
  Copyright:c 2001 C.L. Music and Publishing
  Tabbed by Ed Morones
      -Play tab in sequence unless otherwise noted-
      -Tune down 1/2 step-

   INTRO:
    play 4x's   Riff 1-play 4x's
  e-----------|-----------------------------------------|
  B-----------|-----------------------------------------|
  G-----------|-----------------------------------------|
  D-----5--7--|---p.m.............5-p.m.....-7-p.m.....-|
  A--2--3--5--|--2----------------3-33333333-5-55555555-|
  E--0--------|--0-00000000000000-----------------------|

    RIFF 2

  e------------------------------------------------------|
  B------------------------------------------------------|
  G------------------------------------------------------|
  D------------------------------------------------------|
  A--2-------------------5h7-7~----------5h7-7~----------|
  E--0-0000-0000-0000-00-------0000-0000-------0000-0000-|



  e----------------------------------------------------------|
  B----------------------------------------------------------|
  G----------------------------------------------------------|
  D------------------------7-5---5-4-----5-4---5h4-----------|
  A--5h7-7~----------5h7-7~----7-----5-7-----5-----3h5-5h7~~-|
  E--------0000-0000-----------------------------------------|

    VERSE:
    RIFF 3
  e--------------------------------------------------------------|
  B--------------------------------------------------------------|
  G--------------------------------------------------------------|
  D------------------------------4-5-------------4-5-------------|
  A------------5h7-7~----------7-----3~3333-3333-----3~3333-3333-|
  E--0000-0000-------0000-0000-----------------------------------|


  
  e-------------------------------------------------------------|
  B-------------------------------------------------------------|
  G-------------------------------------------------------------|
  D--------------------------------------4-5-------------4-5----|
  A-5h7-5-7~-----------5h7-7~----------7-----3~3333-3333-----3~-|
  E----------0000-0000-------0000-0000--------------------------|



  



                RIFF 4-play 3x's   RIFF 4b
  e------------|------------------|----------------|
  B------------|------------------|----------------|
  G------------|------------------|----------------|
  D------------|-4-5-5--7--9-11---|-5--7--4--5--9--|
  A--3333-3333-|-----3--5--7--9---|-3--5--2--3--7--|
  E------------|------------------|----------------|


    CHORUS:                    
     RIFF 5                  
  e------------------------------------------------|
  B------------------------------------------------|
  G------------------------------------------------|
  D--2--5--2--5--2--5--2--5--7---------4h5-----sl.-|
  A--2--3--2--3--2--3--2--3--5-5h7-5h7-----3h5-\7~-|
  E--0-----0-----0-----0---------------------------|
    -Play RIFF 2-
    -then  VERSE RIFF 3-
    -then RIFF 4 and 4b-
    -then CHORUS RIFF 5-
[ Tab from: http://www.guitaretab.com/w/wisdom-call/151436.html ]
    BRIDGE:keys play 2x's
  e-----|-----------------|------------------------10b12-10b12-10b12-|
  B-----|-----------------|-------8b10-5b7-10b12-7-------------------|
  G-----|-----5--7--9-----|-----5------------------------------------|
  D--2--|--2--5--7--9-----|---5--------------------------------------|
  A--2--|--2--3--5--7-----|-7----------------------------------------|
  E--0--|--0--------------|------------------------------------------|



  

  e--10b12-8p7p5-------------------------------------------10b12-|
  B-------------8p7p5--------------------------------8~7h10------|
  G------------------7p5------------------------7~5h7------------|
  D----------------------7p5-----sl.sl.----7~5h7-----------------|
  A-------------------------7~~~5\--/7--5h7----------------------|
  E--------------------------------------------------------------|

 
  

  e--10b12-10b12-10b12-------------------------------------|
  B--------------------------------------------------------|
  G--------------------------------------------------------|
  D------------------p.m.................................--|
  A------------------33333333-555555555-77777777-55555555--|
  E--------------------------------------------------------|







  


                       SOLO:
                       Rythym plays RIFF 5
  e------------------|-9p7----9p7----9p7----9p7---7p5---7p5---7p5----|
  B------------------|----10p7---10p7---10p7---10----8p5---8p5---8p5-|
  G------------------|-----------------------------------------------|
  D--5--7--4--5-5-2--|-----------------------------------------------|
  A--3--5--2--3-3-2--|-----------------------------------------------|
  E---------------0--|-----------------------------------------------|



  
  e--7p5--11p9----11p9----11p9----11p9---9p7----9p7----7p5---7p5----|
  B-----8-----12p9----12p9----12p9----12----10p7---10p7---8p5---8p5-|
  G-----------------------------------------------------------------|
  D-----------------------------------------------------------------|
  A-----------------------------------------------------------------|
  E-----------------------------------------------------------------|


  

  e--9p7----9p7----9p7----9p7---7p5---7p5---7p5---7p5--11p9----11p9-|
  B-----10p7---10p7---10p7---10----8p5---8p5---8p5---8-----12p9-----|
  G-----------------------------------------------------------------|
  D-----------------------------------------------------------------|
  A-----------------------------------------------------------------|
  E-----------------------------------------------------------------|

  


  e------11p9----11p9---9p7----9p7-----7h8-7p5--------------|
  B--12p9----12p9----12----10p7---10p7---------7h8-7p5-8~~~~|
  G---------------------------------------------------------|
  D---------------------------------------------------------|
  A---------------------------------------------------------|
  E---------------------------------------------------------|

  -After SOLO play CHORUS 2x's-
  -then play RIFF 2 and end song-

   
  Any Q's or com's email Ed at 
  5150rocker@sbcglobal.net