Song name
# A B C D E F G H I J K L M N O P Q R S T U V W X Y Z

Wishful Thinking - Smile tab

Song: Smile
Band: Wishful Thinking

These guys are an Australian Punk Rock band and they rule! Check out their website:
www.wishfulthinking.com.au

Intro:

-2-2-0-0-0-0-0-0-1-1-1-1-1-1-1-1-------------------|
-3-3-3-3-3-3-2-2-1-1-1-1-1-1-1-1-------------------|
-2-2-2-2-2-2-2-2-0-0-0-0-0-0-0-0-------------------|   Do this 4 times
-0-0-0-0-0-0-0-0-0-0-0-0-0-0-0-0-------------------|
-0-0-0-0-0-0-0-0-2-2-2-2-2-2-2-2-------------------|
-----------------3-3-3-3-3-3-3-3-------------------|

Verse:

---------------------------|
---------------------------|
-7---7-4-2-----------------|   For this bit you need to listen to the song
-7-5-7-4-2-5---------------|   how many times the notes are played
-5-5-5-2-0-5---------------|
---3-------3---------------|

and that is pretty much it!
Tap to rate this tab
 
# A B C D E F G H I J K L M N O P Q R S T U V W X Y Z