Song name
# A B C D E F G H I J K L M N O P Q R S T U V W X Y Z

Witch - Seer tab

For a sample of the song go to www.teepeerecords.com/bands/witch

Witch is a new group out of vermont, check out their website, awesome band, you'll 
recognize this song from the intro to Volcom Stone's Escramble

Heavy, and I mean HEAVY distortion is needed to even sound close to the recording. Even 
a few fuzz pedals if necessary.

standard tuning

Intro: Heavy,not too slow.
----------------------------------------------------------------------|
----------------------------------------------------------------------|
----------------------------2s4--7--4s2--------------2s4-4------------|
-----------------------------------------5h7p5-------------7-5--2-5-2-|
0----2-2--------------0-------------------------0---------------------|
0-0-------5-3--0-3-0--0-0-----------------------0-0-------------------|

--------------------------------|
--------------------------------|
-----2s4--7--4s2----------------|
------------------5h7p5~~~~~~~~-|
-0------------------------------|
-0-0----------------------------|

Slightly faster: about 80-90bpm

-------------------------------------------------|
-------------------------------------------------|\
-----2s4-4--------------------2s4--7--4s2--------| X4
-----------7-5--2-5-2----------------------5h7p5-|/
0----------------------0-------------------------|
0-0--------------------0-0-----------------------|


--------------------||
--------------------||
9--9-9--9-9--9-9--9-o| \
9--9-9--9-9--9-9--9-o|  X6
7--7-7--7-7--7-7--7-|| /
0--0-0--0-0--0-0--0-||


X X X X X X X X X  <-palm mute
------------------------------||
------------------------------||
9-9-9-9-9-9-9-9-9--------3----o| \
9-9-9-9-9-9-9-9-9--------3----o|  X4
7-7-7-7-7-7-7-7-7--0-3-5-1----|| /
0-0-0-0-0-0-0-0-0--0-3-5-0----||

-------|-------------------------------------------------|
-------|-------------------------------------------------|\
-------|-----2s4-4--------------------2s4--7--4s2--------| X4
-------|-----------7-5--2-5-2----------------------5h7p5-|/
-------|0----------------------0-------------------------|
-s13s0-|0-0--------------------0-0-----------------------|


--------------------||
--------------------||
9--9-9--9-9--9-9--9-o| \
9--9-9--9-9--9-9--9-o|  X6
7--7-7--7-7--7-7--7-|| /
0--0-0--0-0--0-0--0-||

X X X X X X X X X
------------------------------||
------------------------------||
9-9-9-9-9-9-9-9-9--------3----o| \
9-9-9-9-9-9-9-9-9--------3----o|  X4
7-7-7-7-7-7-7-7-7--0-3-5-1----|| /
0-0-0-0-0-0-0-0-0--0-3-5-0----||

-------|-------------------------------------------------|
-------|-------------------------------------------------|\
-------|-----2s4-4--------------------2s4--7--4s2--------| X4
-------|-----------7-5--2-5-2----------------------5h7p5-|/
-------|0----------------------0-------------------------|
-s13s0-|0-0--------------------0-0-----------------------|


I haven't worked out the solo yet, come around later for it though....


-------|-------------------------------------------------|-------|
-------|-------------------------------------------------|\------|
-------|-----2s4-4--------------------2s4--7--4s2--------|-X4----|
-------|-----------7-5--2-5-2----------------------5h7p5-|/------|
-------|0----------------------0-------------------------|-------|
-s13s0-|0-0--------------------0-0-----------------------|-0~~~~-|


-bass solo- (with some bowing over top of it)

X9  X3  X9  X9          <-numbers of times chord is played (in steady triplets to the beat)
----------------------||
----------------------|| \
9---8---7---3---2-2---o|  X9 (gradually get louder bit by bit as you play this, a VERY long crescendo)
9---8---7---3---2-2---o| /
7---6---5---1---0-0---||
0---0---0---0-------0-||

-pause-

-------------------------------------------------|
-------------------------------------------------|\
-----2s4-4--------------------2s4--7--4s2--------| X4
-----------7-5--2-5-2----------------------5h7p5-|/
0----------------------0-------------------------|
0-0--------------------0-0-----------------------|


--------------------||
--------------------||
9--9-9--9-9--9-9--9-o| \
9--9-9--9-9--9-9--9-o|  X6
7--7-7--7-7--7-7--7-|| /
0--0-0--0-0--0-0--0-||

X X X X X X X X X
------------------------------||
------------------------------||
9-9-9-9-9-9-9-9-9--------3----o| \
9-9-9-9-9-9-9-9-9--------3----o|  X4
7-7-7-7-7-7-7-7-7--0-3-5-1----|| /
0-0-0-0-0-0-0-0-0--0-3-5-0----||

-solos until the end-


hope you enjoyed it, so sorry, I'll try and repost the solos later!
Tap to rate this tab
 
# A B C D E F G H I J K L M N O P Q R S T U V W X Y Z