Song name
# A B C D E F G H I J K L M N O P Q R S T U V W X Y Z

Witchery - Omens tab

Witchery
Omens



Intro / chorus:

eb|-------0---------1-----------|-------0---------1---------|
Bb|----------0--------0---------|----------0--------0-------|
Gb|-2/4-4------4-3------0-------|-2/4-4------4-3------0-----| Guitar 1
Db|-----------------------------|---------------------------|
Ab|-----------------------------|---------------------------|
Eb|-----------------------------|---------------------------|


eb|-------0---------1-----------|-------0---------1---------|
Bb|----------0--------0---------|----------0--------0-------|
Gb|-2/4-4------4-3------0-------|-2/4-4------4-3------0-----| Guitar 1
Db|-----------------------------|---------------------------|
Ab|-----------------------------|---------------------------|
Eb|-----------------------------|---------------------------|
  |
eb|-----------------------------|---------------------------|
Bb|-----------------------------|---------------------------|
Gb|-----------------------------|---------------------------| Guitar 2
Db|-----------------------------|---------------------------|
Ab|-----------------------5-4-3-|---------------------------|
Eb|-----------------------3-2-1-|---------------------------|
                          . . .

eb|-------0---------1-----------|-------0---------1---------|
Bb|----------0--------0---------|----------0--------0-------|
Gb|-2/4-4------4-3------0-------|-2/4-4------4-3------0-----| Guitar 1
Db|-----------------------------|---------------------------|
Ab|-----------------------------|---------------------------|
Eb|-----------------------------|---------------------------|
  |
eb|-----------------------------|---------------------------|
Bb|-----------------------------|---------------------------|
Gb|-----------------------------|-9-------------------------| Guitar 2
Db|-----------------------------|-9-(sustain chord)---------|
Ab|-----------------------------|-7-------------------------|
Eb|-----------------------------|-0-------------------------|


eb|-------0---------1-----------|-------0---------1---------|
Bb|----------0--------0---------|----------0--------0-------|
Gb|-2/4-4------4-3------0-------|-2/4-4------4-3------0-----| Guitar 1
Db|-----------------------------|---------------------------| (repeat)
Ab|-----------------------------|---------------------------|
Eb|-----------------------------|---------------------------|
  |
eb|-----------------------------|---------------------------|
Bb|-----------------------------|---------------------------|
Gb|-----------------------------|---------------------------| Guitar 2
Db|-----------------------------|---------------------------| (repeat)
Ab|-2-2---2-2-------2-2---2-2---|-2-2---2-2-------2-2---2-2-|
Eb|-0-0---0-0-------0-0---0-0---|-0-0---0-0-------0-0---0-0-|



Verse:

eb|---------------|
Bb|---------------|
Gb|---------------| Guitars 1 & 2
Db|-2-----2/3-----| x 7
Ab|---2---2/3-----|
Eb|-----0-----0-0-|
              . .

eb|---------------|
Bb|---------------|
Gb|---------------| Guitars 1 & 2
Db|-5-----4-----3-|
Ab|---5-----4-----|
Eb|-----0-----0---|
    |---------|
  let ring



Bridge:

eb|------------------------------|
Bb|------------------------------|
Gb|---2-------2-------2----------| Guitars 1 & 2
Db|-------1-------0-------0------|
Ab|-0---0---0---0---0---0---1--3-|
Eb|------------------------------|
    |---------------------|
	       let ring



Middle:

eb|---------------------------6-------------------------------------|
Bb|-------------------------6---------------------------------------|
Gb|-4---------5-----4---------------4---------5-----4---------------| x3
Db|---2-----3---------2---------------2-----3---------2-------------|
Ab|-----------------------------------------------------------------|
Eb|-----0-0-----0-0-----0-0-----0-0-----0-0-----0-0-----0-0-000-0-0-|
        . .     . .     . .     . .     . .     . .     . . ... . .
		
eb|-----------------------------------------------------------------|
Bb|-----------------------------------------------------------------|
Gb|-----------------------------------------------------------------| x2
Db|-4---------5-----4---------5-----4---------5-----4---------------|
Ab|---4-----5---------4-----5---------4-----5---------4-------------|
Eb|-----2-2-----2-2-----2-2-----2-2-----2-2-----2-2-----2-2-222-2-2-|
        . .     . .     . .     . .     . .     . .     . . ... . .

eb|---------------------------6-------------------------------------|
Bb|-------------------------6---------------------------------------|
Gb|-4---------5-----4---------------4---------5-----4---------------|
Db|---2-----3---------2---------------2-----3---------2-------------|
Ab|-----------------------------------------------------------------|
Eb|-----0-0-----0-0-----0-0-----0-0-----0-0-----0-0-----0-0-000-0-0-|
        . .     . .     . .     . .     . .     . .     . . ... . .

eb|---------------------------6--------------------|
Bb|-------------------------6----------------------|
Gb|-4---------5-----4---------------4---------5----|
Db|---2-----3---------2---------------2-----3------|
Ab|------------------------------------------------|
Eb|-----0-0-----0-0-----0-0-----0-0-----0-0-----0-0|
        . .     . .     . .     . .     . .     . .



Pre-outro bridge:

eb|------------------------------|
Bb|------------------------------|
Gb|---5-------5-------5----------| Guitars 1 & 2
Db|-------4-------3-------3------|
Ab|-3---3---3---3---3---3---4--6-|
Eb|------------------------------|
    |---------------------|
	       let ring



Outro:

eb|-------------------------------------------------------------------|
Bb|-------------------------------------------------------------------|
Gb|-------------------------------------------------------------------| Guitars 1 & 2
Db|-------------------------2-0-2-3-------------------------2h3p2p0h2-|
Ab|-3-2-2-2-3-2-2-2-3-2-2-2-2-0-2-3-3-2-2-2-3-2-2-2-3-2-2-2-----------|
Eb|-1-0-0-0-1-0-0-0-1-0-0-0---------1-0-0-0-1-0-0-0-1-0-0-0-----------|
Tap to rate this tab
 
# A B C D E F G H I J K L M N O P Q R S T U V W X Y Z