Song name
# A B C D E F G H I J K L M N O P Q R S T U V W X Y Z

Within Temptation - Caged tab

Help us improve GuitareTab! Take a short survey!
tuning- standard Db
Db--
Ab--
E---
B---
Gb--
Db--

h-hammer on
p-pull off
~-vibro
/-slide up
\-slide down
pm-palm mute
b-bend

flute intro
|-----5---7/8-7----5---8--10~--8---5---7/8-7---8--7-|
|----------------8---------------------------8------|
|---------------------------------------------------|
|---------------------------------------------------|
|---------------------------------------------------|
|---------------------------------------------------|

|---5h7p5---7/8-7---5---8--10~--8---5---7/8-7---5--|
|-----------------8---------------------------8----|
|--------------------------------------------------|
|--------------------------------------------------|
|--------------------------------------------------|
|--------------------------------------------------|

then guitar
|---------------------------------------|
|---------------------------------------|
|---------------------------------------|
|---------------------------------------|
|---7-------5-------5------7---3-3/5~-3-|
|---5---0---3---0---3---0--5------------|
pm      -       -       -

|--------------------------------------|
|--------------------------------------|
|-------------------------5------------|
|-------------------------5-----2---2--|
|---7-------5-------5-----3-----2---2--|
|---5---0---3---0---3---0----0--0---0--|
pm      -       -       -    -

|---------------------------------------|
|---------------------------------------|
|---------------------------------------|
|---------------------------------------|
|---7-------5-------5------7---3-3/5~-3-|
|---5---0---3---0---3---0--5------------|
pm      -       -       -

|--------------------------------------|
|--------------------------------------|
|-------------------2-2-2-2-2-2-2-2----|
|-------------------2-2-2-2-2-2-2-2----|
|---7-------5---5b--0-0-0-0-0-0-0-0----|
|---5---0---3---3b---------------------|
pm      -             - -   - -   -

verse
|------------------------------------------|
|------------------------------------------|
|--2----2----2--2--------------7---7-7-7-5-|
|--2----2----2--2-----5----5---7---7-7-7-5-|
|--0----0----0--0-----5----5---5---5-5-5-3-|
|---------------------3----3---------------|
pm           -             -         -

|---------------------------------------------|
|---------------------------------------------|
|--2----2----2--2-----------------------------|
|--2----2----2--2----3----3---5---5--5-5-5-5--|
|--0----0----0--0----3----3---5---5--5-5-5-5--|
|--------------------1----1---3---3--3-3-3-3--|
pm           -            -       -    -   -

|-----------------------------------------|
|-----------------------------------------|
|--2----2----2--2-------------7---7-7-7-5-|
|--2----2----2--2----5----5---7---7-7-7-5-|
|--0----0----0--0----5----5---5---5-5-5-3-|
|--------------------3----3---------------|
pm           -            -         -

|---------------------------------------------------------|
|---------------------------------------------------------|
|---------------------------------------------------------|
|-3--3-3-3--3-3-5--5-5-5--5-5-3--3-3-3--3-3-5--5-5-5--5-5-|
|-3--3-3-3--3-3-5--5-5-5--5-5-3--3-3-3--3-3-5--5-5-5--5-5-|
|-1--1-1-1--1-1-3--3-3-3--3-3-1--1-1-1--1-1-3--3-3-3--3-3-|
pm   - -    - -    - -    - -    - -    - -    - -    - -

chorus
|---------------------------------------------------|
|---------------------------------------------------|
|--5--5--5--5--5-5-5--5--5--4--4--4--4--4-4-4--4--4-|
|--5--5--5--5--5-5-5--5--5--4--4--4--4--4-4-4--4--4-|
|--3--3--3--3--3-3-3--3--3--2--2--2--2--2-2-2--2--2-|
|---------------------------------------------------|
pm    -  -     - - -     -     -  -     - - -     -

|----------------------------------------------------|
|----------------------------------------------------|
|----------------------------------------------------|
|--3---3-3-3-3---3-3-3-3-3---3-3---------------------|
|--3---3-3-3-3---3-3-3-3-3---3-3---------------------|
|--1---1-1-1-1---1-1-1-1-1---1-1---1-4-1-4---1--1-4~-|
pm     -   -     -   -     

|---------------------------------------------------|
|---------------------------------------------------|
|--5--5--5--5--5-5-5--5--5--4--4--4--4--4-4-4--4--4-|
|--5--5--5--5--5-5-5--5--5--4--4--4--4--4-4-4--4--4-|
|--3--3--3--3--3-3-3--3--3--2--2--2--2--2-2-2--2--2-|
|---------------------------------------------------|
pm    -  -     - - -     -     -  -     - - -     -

|-----------------------------------------------------------|
|-----------------------------------------------------------|
|-----------------------------------------------------------|
|--3---3-3-3-3---3-3-3-3-3----3-5---5-5-5-5---5-5-5-5-5---5-|
|--3---3-3-3-3---3-3-3-3-3----3-5---5-5-5-5---5-5-5-5-5---5-|
|--1---1-1-1-1---1-1-1-1-1----1-3---3-3-3-3---3-3-3-3-3---3-|
pm     -   -     -   -              -   -     -   -     


repeat verse and
chorus riff...

bridge (harmony chords arranged
for guitar)
|--1-----1-----0-----0-----1-----1-----3--|
|--3-----1-----1-----0-----3-----1-----3--|
|--2-----2-----0-----2-----2-----2-----0--|
|--0-----3-----2-----2-----0-----3-----0--|
|--------3-----3-----0-----------3-----2--|
|--------1-----------------------1-----3--|
repeat once more...

then guitar
|--------------------------------------------------------|
|--------------------------------------------------------|
|-----------------5--------------------------------------|
|--6----5----6----5----6----5----3--3--3--3--3-3-3--3--3-|
|--6----5----6----3----6----5----3--3--3--3--3-3-3--3--3-|
|--4----3----4---------4----3----1--1--1--1--1-1-1--1--1-|
pm                                  -  -     - - -     -

|----------------------------------------|
|----------------------------------------|
|-----------------5----6----4------------|
|--6----5----6----5----6----4------------|
|--6----5----6----3----4----2------------|
|--4----3----4---------------------------|

|---------------------------------------|
|---------------------------------------|
|---------------------------------------|
|---------------------------------------|
|------------------------------3-3/5~-3-|
|---5---0---3---0---3---0--5------------|
pm      -       -       -

|--------------------------------------|
|--------------------------------------|
|-------------------------5------------|
|-------------------------5-----2---2--|
|-------------------------3-----2---2--|
|---5---0---3---0---3---0----0--0---0--|
pm      -       -       -    -

|---------------------------------------|
|---------------------------------------|
|---------------------------------------|
|---------------------------------------|
|------------------------------3-3/5~-3-|
|---5---0---3---0---3---0--5------------|
pm      -       -       -

|--------------------------------------|
|--------------------------------------|
|-------------------2-2-2-2-2-2-2-2----|
|-------------------2-2-2-2-2-2-2-2----|
|-------------------0-0-0-0-0-0-0-0----|
|---5---0---3---3b---------------------|
pm      -             - -   - -   -

|---------------------------------------|
|---------------------------------------|
|---------------------------------------|
|---------------------------------------|
|---7-------5-------5------7---3-3/5~-3-|
|---5---0---3---0---3---0--5------------|
pm      -       -       -

|--------------------------------------|
|--------------------------------------|
|-------------------------5------------|
|-------------------------5-----2---2--|
|---7-------5-------5-----3-----2---2--|
|---5---0---3---0---3---0----0--0---0--|
pm      -       -       -    -

|---------------------------------------|
|---------------------------------------|
|---------------------------------------|
|---------------------------------------|
|---7-------5-------5------7---3-3/5~-3-|
|---5---0---3---0---3---0--5------------|
pm      -       -       -

|-----------------------------------|
|-----------------------------------|(let this chord ring)
|--------------------------7--------|
|--------------------------7--------|
|---7-------5-------5------5--------|
|---5---0---3---0---3---0-----------|
pm      -       -       -

repeat chorus once more

flute outro
|-----5---7/8-7----5---8--10~--8---5---7/8-7---8--7-|
|----------------8---------------------------8------|
|---------------------------------------------------|
|---------------------------------------------------|
|---------------------------------------------------|
|---------------------------------------------------|

|---5h7p5---7/8-7---5---8--10~--8---5---7/8-7-----|
|-----------------8---------------------------8---|
|-------------------------------------------------|
|-------------------------------------------------|
|-------------------------------------------------|
|-------------------------------------------------|

(let these chords ring)
|--10------9-----------|
|--10-----10-----------|
|---9------9-----------|
|----------------------|
|----------------------|
|----------------------|

THE END!
Related for Caged tab