Song name
# A B C D E F G H I J K L M N O P Q R S T U V W X Y Z

Wolfgang Amadeus Mozart - Ode To Joy tab

-----------------------------------------------------------------------------
		Ode to Joy - Wolfgang Amadeus Mozart
-----------------------------------------------------------------------------
Tabbed by:DoubleAron
Email:a_ramcharitar@hotmail.com

Tuning:standard

1st part
e|-----7-7--8--10-10--8-7-5--3-3--5--7-7--5-5----------------------|
B|-----------------------------------------------------------------|
G|-----------------------------------------------------------------|
D|-----------------------------------------------------------------|
A|-----------------------------------------------------------------|
E|-----------------------------------------------------------------|

2nd part
e|----7-7--8--10-10--8-7-5--3-3--5-7-5--3-3------------------------|
B|-----------------------------------------------------------------|
G|-----------------------------------------------------------------|
D|-----------------------------------------------------------------|
A|-----------------------------------------------------------------|
E|-----------------------------------------------------------------|

3rd part
e|-----5-5-7-3----5-7-8-7-3----5-7-8-7-5-3-5-----------------------|
B|-------------------------------------------3---------------------|
G|-----------------------------------------------------------------|
D|-----------------------------------------------------------------|
A|-----------------------------------------------------------------|
E|-----------------------------------------------------------------|

The rest is just shifting up and down the scale
Tap to rate this tab
# A B C D E F G H I J K L M N O P Q R S T U V W X Y Z