Song name
# A B C D E F G H I J K L M N O P Q R S T U V W X Y Z

Wolfgang Amadeus Mozart - Laudate Dominum tab

----------------------------------------------------------------------------
	      Laudate Dominum - Wolfgang Amadeus Mozart
----------------------------------------------------------------------------


Tabbed by: Dave S. 
Email: prime-prine@hotmail.com

Tuning: (Standard) Drop D



E||--------------------|--------0-----2-----|--3-----------------|
B||--3-----------------|--------------------|-----------3--------|
G||-----------2--------|-----2-----2-----2--|--------0-----0-----|
D||--------4-----4-----|--------------------|-----0-----------0--|
A||-----5-----------5--|--4-----------------|--2-----------------|
D||--0-----------------|--------------------|--------------------|

   
--------------------|--5-----------------|--------7--------7--|
-----------3--------|-----------3--------|--------------8-----|
--------0-----0-----|--------2-----2-----|-----6-----6--------|
-----2-----------2--|-----2-----------2--|--------------------|
--------------------|--0-----------------|--0-----------------|
--2-----------------|--------------------|--------------------|

   
--5-----------3-----|--2-----------------|--10-----------------|
-----------2--------|-----------3--------|------------7--------|
--------2--------2--|--------2-----2-----|---------7-----7-----|
-----2--------------|-----0-----------0--|------0-----------0--|
--------------------|--------------------|---------------------|
--0-----------------|--0-----------------|---0-----------------|

  
--------------9-----|--9-----------7-----|--5-----------------|
-----------7--------|-----------0--------|-----------7--------|
--------7--------7--|--------0--------0--|--------7-----7-----|
-----0--------------|-----0--------------|-----0-----------0--|
--------------------|--------------------|--------------------|
--0-----------------|--0-----------------|--0-----------------|

 
--4-----------------|--------------------|--5-----------------|
-----------5--------|-----------5--------|-----------5--------|
--------4-----4-----|--------4-----4-----|--------6-----6-----|
-----0-----------0--|-----0-----------0--|-----7-----------7--|
--------------------|--------------------|--0-----------------|
--0-----------------|--0-----------------|--------------------|

   
--5-----------4-----|--0-----------------|--------------------|
-----------7-----7--|--------------3-----|--3-----------------|
--------7-----------|-----------2-----2--|-----------1--------|
-----0--------------|--------0-----------|--------2-----2-----|
--------------------|-----2--------------|--------------------|
--0-----------------|--------------------|-----2-----------2--|

  
--------------------|--------------------|--------------------|
--2-----------------|--2-----------------|--0-----------------|
-----------2--------|-----------2--------|-----------2--------|
--------2-----2-----|--------4-----4-----|--------4-----4--0--|
-----0-----------0--|--------------------|-----5--------------|
--------------------|-----4-----------4--|--0-----------------|

   
--7-----------------|--------6-----7-----|--10-----9-----7-----|
-----------7--------|--------------------|---------------------|
--------7-----7-----|-----7-----7-----7--|------7-----7-----7--|
-----0-----------0--|--------------------|---------------------|
--------------------|--------------------|---------------------|
--0-----------------|--0-----------------|---0-----------------|

   
--5-----------------|--------------7--5--|--5-----------------|
-----------2--------|-----------0--------|--------2-----3-----|
--------2-----2-----|--------6-----------|-----2-----2-----2--|
-----4-----------4--|-----6--------------|--------------------|
--------------------|--7-----------------|--0-----------------|
--4-----------------|--------------------|--------------------|

   
--0-----2-----4-----|--5-----------0-----|--0-----------2-----|
--2-----3-----0-----|-----------5-----2--|-----------2--3-----|
--------------------|--------6-----------|--------2-----------|
--------------------|-----7--------------|-----2--------------|
-----0-----0-----0--|--------------0-----|--0--------------0--|
--------------------|--------------------|--------------------|

  
--2-----5-----3-----|--3-----------------|--9------------------|
--4-----7-----5-----|-----------2--------|-----------10--------|
--------------------|--------2-----2-----|--------9------9-----|
--------------------|-----2-----------2--|---------------------|
-----0-----0-----0--|--0-----------------|-----0------------0--|
--------------------|--------------------|---------------------|

  
--9------------9--7----|--10-----------------|--10-----------------|
-----------10-------10-|------------7--------|------------7--------|
--------9--------------|---------7-----7-----|---------7-----7-----|
-----------------------|------0-----------0--|------0-----------0--|
-----0-----------------|---------------------|---------------------|
-----------------------|---0-----------------|---0-----------------|

 
--10-----10------9-----|--7-----7-----5-----|--3--------------3--|
--12-----12-----10-----|--8-----8-----7-----|-----------0--------|
---0-------------------|--0-----------------|--------0-----0-----|
------0------0------0--|-----0-----0-----0--|-----2--------------|
-----------------------|--------------------|--------------------|
-----------------------|--------------------|--2-----------------|

  
--2-----------------|--5-----------------|--------3---2--0---2--|
-----------0--------|-----------7--------|----------------------|
--------1-----1-----|--------7-----7-----|-----2----------------|
-----0-----------0--|-----0-----------0--|----------------------|
--2-----------------|--------------------|----------------------|
--------------------|--0-----------------|--0-------------------|

 
--0-----0-----2-----|--3-----2-----0-----|--------------------|
--------------------|--------------------|--3-----------------|
-----2-----2-----2--|-----2-----2-----2--|-----------2--------|
--------------------|--------------------|--------4-----4-----|
--0-----------------|--0-----------------|-----5-----------5--|
--------------------|--------------------|--0-----------------|

  
--------5-----------|--0-----------------|--------------------|
--------------7-----|-----------2-----3--|--3-----------------|
-----7-----7-----7--|--------0-----0-----|-----------2--------|
--------------------|-----2--------------|--------4-----4--0--|
--------------------|--0-----------------|-----5--------------|
--0-----------------|--------------------|--0-----------------|

   
--10-----------------|-----------9--7--5--|--5--------------3--|
------------7--------|--------------------|-----------2--------|
---------7-----7-----|--------7-----------|--------2-----2-----|
------0-----------0--|-----0--------------|-----2--------------|
---------------------|--------------------|--0-----------------|
---0-----------------|--0-----------------|--------------------|

  
--2-----------------|--------------------|--------------------|
-----------3--------|--------------------|--1-----------------|
--------2-----2-----|--5-----------------|--------------------|
-----0-----------0--|-----------4--------|-----------4--------|
--------------------|--------5-----5-----|--------5-----5-----|
--0-----------------|-----0-----------0--|-----0-----------0--|

  
--------------------|--10-----------------|--------6-----7-----|
--0-----------------|------------0--------|--------------------|
-----------0--------|---------0-----0-----|-----7-----7-----7--|
--------0-----0-----|------0-----------0--|--6-----------------|
--------------------|---------------------|--------------------|
-----5-----------5--|---0-----------------|--------------------|

   
--10------9------7----|--5-----------------|--5-----------------|
----------------------|-----------7--------|--------------3-----|
------10-----10-------|--------7-----7-----|-----------2-----2--|
---9------------------|-----0-----------0--|--------4-----------|
----------------------|--------------------|-----0--------------|
----------------------|--0-----------------|--0-----------------|

          
--------------------|--------------------|--5------------||
--3-----------------|--2-----------------|--3------------||
-----------2--------|-----------2--------|--2------------||
--------2-----2-----|--------2-----2-----|--4------------||
-----0-----------0--|-----0-----------0--|--0------------||
--------------------|--------------------|--0------------||

| /  slide up
| \  slide down
| h  hammer-on
| p  pull-off
| ~  vibrato
| +  harmonic
| x  Mute note
===========================================================================
Tap to rate this tab
# A B C D E F G H I J K L M N O P Q R S T U V W X Y Z