Song name
# A B C D E F G H I J K L M N O P Q R S T U V W X Y Z

Wolfsheim - Kein Zurueck tab

Artist: Wolfsheim
Tuning: Standart


Intro:

Guitar 1:

e|--2-3------------------------|--2-3-------------------|
a|------3----------------------|------0-----------------|
g|-----------------------------|------------------------| x 2
D|-----------------------------|------------------------|
A|-----------------------------|------------------------|
E|-----------------------------|------------------------|

Guitar 2:

        G               Em           B
e|-----------------------------------------------------|
a|-----------------------------------------------------|
g|-------------------------------4-4-4-4-4-4-4-4-4-----| x 2
D|-5-5-5-5-5-5-5-5-2-2-2-2-2-2-2-4-4-4-4-4-4-4-4-4-----|
A|-5-5-5-5-5-5-5-5-2-2-2-2-2-2-2-2-2-2-2-2-2-2-2-2-----|
E|-3-3-3-3-3-3-3-3-0-0-0-0-0-0-0-----------------------|



Strophe:


        B                Em
e|---------------------------------------|
a|---------------------------------------|
g|-4-4-4-4-4-4-4-------------------------| x 4
D|-4-4-4-4-4-4-4-2-2-2-2-2-2-2-2---------|
A|-2-2-2-2-2-2-2-2-2-2-2-2-2-2-2---------|
E|---------------0-0-0-0-0-0-0-0---------|


Refrain:

Guitar 1:

          Am             Em                  b               Em     
e|-----------------------------------------------------------------------|
a|-----------------------------------------------------------------------|
g|---------------------------------------4-4-4-4-4-4-4-4-----------------|
D|-7-7-7-7-7-7-7-7-7-2-2-2-2-2-2-2-2-2-2-4-4-4-4-4-4-4-4-2-2-2-2-2-2-2-2-| 2x
A|-7-7-7-7-7-7-7-7-7-2-2-2-2-2-2-2-2-2-2-2-2-2-2-2-2-2-2-2-2-2-2-2-2-2-2-|
E|-5-5-5-5-5-5-5-5-5-0-0-0-0-0-0-0-0-0-0-----------------0-0-0-0-0-0-0-0-|


Guitar 2:

am ende jeden refrain parts

e|-2-3-------------------|
a|-----3-----------------|
g|-----------------------|
D|(2)(2)(2)(2)(2)(2)(2)--|
A|(2)(2)(2)(2)(2)(2)(2)--|
E|(0)(0)(0)(0)(0)(0)(0)--|



Repeat Intro 2 x


Repeat Strophe 4 x


Repeat Refrain 4 x


Repeat Intro 2 x


Repeat Strophe 4 x


Repeat Refrain 4 x
(let ring totally out)
Tap to rate this tab
# A B C D E F G H I J K L M N O P Q R S T U V W X Y Z