Song name
# A B C D E F G H I J K L M N O P Q R S T U V W X Y Z

Wwe - Brock Lesnar Theme tab

Listen to the song to get the timing right.

e|---------------------------------------------------------------------------|
B|---------------------------------------------------------------------------|
G|---------------------------------------------------------------------------|
D|-0----0--0-0--3---0-0---0--0-0--3-0-0------0-0-0-3--0-0-0--0---------------| x2
A|-0----0--0-0--3---0-0---0--0-0--3-0-0------0-0-0-3--0-0-0--0---------------|
D|-0----0--0-0--3---0-0---0--0-0--3-0-0------0-0-0-3--0-0-0--0---------------|




e|---------------------------------------------------------------------------|
B|---------------------------------------------------------------------------|
G|---------------------------------------------------------------------------|
D|--0-0-3-0---/6----0-0-3-0---/6----0-0-3-0---/6----0-0-3-0--6-6--6--6-------|
A|--0-0-3-0---/6----0-0-3-0---/6----0-0-3-0---/6----0-0-3-0--6-6--6--6-------|
D|--0-0-3-0---/6----0-0-3-0---/6----0-0-3-0---/6----0-0-3-0--6-6--6--6-------|
Tap to rate this tab
# A B C D E F G H I J K L M N O P Q R S T U V W X Y Z