Song name
# A B C D E F G H I J K L M N O P Q R S T U V W X Y Z

X-men - X-men Theme tab

#----------------------------------PLEASE NOTE---------------------------------#
#This file is the author's own work and represents their interpretation of the #
#song. You may only use this file for private study, scholarship, or research. #
#------------------------------------------------------------------------------##


Gtr I (E A D G B E) - X-Men Theme Song

 4/4
  Gtr I
  PM----|    PM--------|        PM----|   PM--------|
  S S S S E  S S S S S S E  E   S S S S E S S S S S S E  E
|e-----------------------------|--------------------------------||
|b-----------------------------|-------------------------------o||
|g-----------------------------|--------------------------------||
|d---------0--------------2p=0-|---------0-------------2p=0-----||
|a-2-2-2-2----2-2--------------|-2-2-2-2---2-2-----------------o||
|E----------------3-3-3-3------|---------------3-3-3-3----------||


   E E  E E  E E  E E    E E  E E  E E S S  S  S
|-19---19---19---19---|-19---19---19-------------|
|---------------------|--------------------------|
|-16---16---16---16---|-16---16---16-------------|
|---------------------|------------------9-11-12-|
|---------------------|----------------9---------|
|---------------------|--------------------------|


   ~~     ~              ~~~~~~~~~
   Q   E  Q   S S  S  S  E    +E
|--------------------------|------|
|--------------------------|------|
|--------------------------|------|
|-11---9--------9-11-12-11-|-(11)-|
|---------9---9------------|------|
|--------------------------|------|


      ~~             ~~                                             ~~
  E   Q   S S  S  S  Q   E    E  Q.   E E    Q      Q    S S  S  S  Q   E E
|--------------------------|--------------------|-<19>----------------------|
|--------------------------|---------------<19>-|---------------------------|
|--------------------------|--------------------|----------9-11-12-11---9---|
|-9---------9-11-12-11---9-|-12------11-9-------|--------9----------------9-|
|----10---9----------------|--------------------|---------------------------|
|--------------------------|--------------------|---------------------------|


   ~~~            ~~      ~~               ~~
  +E   S S  S  S  Q   E   Q     S S  S  S  Q   E   E  Q.    E    E    E
|-----------------------------|--------------------------------|---------|
|-----------------------------|--------------------------------|----<19>-|
|--------9-11-12-11---9-------|--------------------------------|---------|
|-(9)--9-----------------10---|---9-11-12-11---9--12-------11--|-9-------|
|-----------------------------|-9------------------------------|---------|
|-----------------------------|--------------------------------|---------|


               PM------------------------------------
               |-3-|    |-3-|  |-3-|  |-3-|  |-3--|
    E   Q.     E E E    E E E  E E E  E E E  E  E E
|-<19>---------------|------------------------------|
|--------------------|------------------------------|
|--------------------|------------------------------|
|--------------------|------------------------------|
|-------------10-9-7-|-10-9-7-10-9-7-10-9-7-12-10-9-|
|--------------------|------------------------------|


 -------------------------------|
   |-3--|  |-3--|  |-3--|  |--3--|
   E  E E  E  E E  E  E E  E  E  E
|----------------------------------|
|----------------------------------|
|----------------------------------|
|----------------------------------|
|-12-10-9-12-10-9-12-10-9-14-12-10-|
|----------------------------------|


   PM------------|            ~~~~~
   |--3--|  |--3--|  |--3--|
   E  E  E  E  E  E  E  E  E  Q
|---------------------------------|
|---------------------------------|
|-------------------------12-11---|
|----------------------12---------|
|-14-12-10-14-12-10-14------------|
|---------------------------------|


 ~~~~~~                 ~~
   +Q    Q   S S  S  S  Q     E   E  Q    Q    Q
|---------------------------|----------------<19>-|
|---------------------------|-----------<19>------|
|-(11)----------------------|---------------------|
|--------------9-11-12-11---|-9--12---------------|
|------------9--------------|---------------------|
|---------------------------|---------------------|


Tablature Legend
----------------
 h   - hammer-on
 p   - pull-off
 b   - bend
 pb  - pre-bend
 r   - bend release (if no number after the r, then release immediately)
 /\  - slide into or out of (from/to "nowhere")
 s   - legato slide
 S   - shift slide
  - natural harmonic
[n]  - artificial harmonic
n(n) - tapped harmonic
 ~   - vibrato
 tr  - trill
 T   - tap
 TP  - trem. picking
 PM  - palm muting
\n/  - tremolo bar dip; n = amount to dip
 \n  - tremolo bar down
 n/  - tremolo bar up
/n\  - tremolo bar inverted dip
 =   - hold bend; also acts as connecting device for hammers/pulls
 <>  - volume swell (louder/softer)
 x   - on rhythm slash represents muted slash
 o   - on rhythm slash represents single note slash

Misc Legend
-----------
 |  - bar
||  - double bar
||o - repeat start
o|| - repeat end
*|  - double bar (ending)
 :  - bar (freetime)
 $  - Segno
 &  - Coda
Tempo markers -  = BPM(8/16=s8/s16), where s8 = swing 8ths, s16 = swing 16ths
Tap to rate this tab
# A B C D E F G H I J K L M N O P Q R S T U V W X Y Z