Song name
# A B C D E F G H I J K L M N O P Q R S T U V W X Y Z

X - White Girl tab

Help us improve GuitareTab! Take a short survey!
Okay, this is my first tab by ear but I know that it's correct... rhythm is a bit
but play with the song and you'll get it. During the chorus, there's rhythm and a lead, 
I
transcribe the lead. However, it's very similar to the rhythm, and the song still sounds 
the same. The chord version of this song does not have the correct verse riff
the chorus chords.


Main Riff
1|------------------------------------------|
2|------------------------------------------|
3|------------------------------------------|
4|----------------------7-7-7---------------|
5|-------5---5---5-6--6-7-7-5---------------|
6|---3-3--3-3--3-----3--5-5-5---------------|

During the verses, Billy Zoom alternates the above riff with this one...it's really the
thing, but with power chords. I won't bother to write out when you play each part, but
can figure it out easily if you have the song.

1|-----------------------------|
2|-----------------------------|
3|-----------------------------|
4|-5-5-5-5-5-5-5-5-5-5-7-7-----|
5|-5-5-5-5-5-5-5-6-6-6-7-7-----|
6|-3-3-3-3-3-3-3-3-3-3-5-5-----|

Here's the bridge part where John and Exene sing "easy to fall" etc.

1|--------------|
2|--------------|
3|-----------5--|
4|-5-5-5-5-5-5--|x8 the first time, then 4 the rest
5|-5-5-5-5-5-3--|
6|-3-3-3-3-3----|

Chorus

1|----------------------------|
2|----------------------------|
4|-8-8-8-8-----7-7-7-7--------|
5|-8-8-8-8-x2--7-7-7-7-x2-----| do this 3 time and then the fourth time play
6|-6-6-6-6-----5-5-5-5--------| a C chord instead of the A chord.

After the chorus, he plays the verse riff except a few octaves higher, no idea how to
it.


End on a G chord.


Email me at abelincoln212@aol.com for questions, comments, etc. I will post another X
soon.
Related for White Girl tab