Song name
# A B C D E F G H I J K L M N O P Q R S T U V W X Y Z

Xavier Naidoo - Kleines Lied Kinderlied tab

Stimmung: DADGad (zum mitspielen capo an 5. Bund)



Strophe:


         Angst    hat    keine    Freunde
    trotzdem kennt man   sie      gut              denn sie
         macht    sich   lieber   Feinde           und  sie
         frisst   am     liebsten Mut
    

d|:---------------0-------------------------------------:| 
a|:--------------------------------3--------------------:| 
G|:---------------------------------------2-h3-p2-p0----:| 
D|:------0-------------------------------------------h3-:| 
A|:-----------------------------------------------------:| 
D|:-----------------------------------------------------:|


... ich schütz' dich und dein Haus

d|:------------------------------------:| 
a|:------------------------------------:| 
G|:-------------3-------------2------0-:|
D|:-2---h3------5-------------4------2-:| 
A|:------------------------------------:| 
D|:------------------------------------:|



Refrain:

     Gm   F   Dis m   D   C

d|:--0----0----0------0---0--:| 
a|:--0----3----0------0---0--:| 
G|:--2----0----3------2---3--:| 
D|:--3----2----3------2---3--:| 
A|:--0----3----1------0---5--:| 
D|:--0----0----0------0---5--:|

         
         Gm
denn ich bin dein kleines Lied

    F 
ich stärk dich bei Gefahr

Dis m
egal was auch geschieht

Dis m   D   C       D    Dis m    F
    ich     bin für dich da




Viel Spass damit!



Tab by AlFonsoBH              Bei Fragen oder Anregungen mail an alfonsobh@t-online.de
Tap to rate this tab
 
# A B C D E F G H I J K L M N O P Q R S T U V W X Y Z