Song name
# A B C D E F G H I J K L M N O P Q R S T U V W X Y Z

Xavier Rudd - Uncle tab

-------------------------------------------------------------------------------
                             UNCLE - Xavier Rudd
-------------------------------------------------------------------------------
Tabbed by: Darrenjag
E-mail: jasperjmarcus@gmail.com
NOTE: This is very much a WIP, and it's best to listen to the track to work out the
exact timing. I'm posting it nonetheless to see if anyone can help finish it.
Tuning: I can't be sure what he plays this in. It's definitely an open tuning, and I
suspect it's based on Open E, but I don't actually know. So I'm going to tab this as if it
were E-B-E-G#-B-E, even if E-B-E-E-B-E is the most likely suspect. I actually found this 
in C-G-C-G-C-C. Getting confusing, aye?
Scale: F# Aeolian (natural minor)

First guitar repeats.
E |-10-10-9-5-5-7-5-4-5-5---------10-10-10-9-5-5-7-5-4-5-5-4------------------|
B |---------------------------------------------------------------------------|
G#|---------------------------------------------------------------------------|
E |---------------------------------------------------------------------------|
B |---------------------------------------------------------------------------|
E |---------------------------------------------------------------------------|

After a couple of bars of the riff above, second guitar lets the chord ring at the end
of each bar. It's possible to pull both off on the same guitar with a capo, but it'll
have to come off before the bit where the song speeds up.
                         A5    F#5                        A5    F#5
E |---------------------------------------------------------------------------|
B |---------------------------------------------------------------------------|
G#|---------------------------------------------------------------------------|
E |-----------------------5-----2--------------------------5-----2------------|
B |-----------------------5-----2--------------------------5-----2------------|
E |-----------------------5-----2--------------------------5-----2------------|

Leading up to the start of the verse, first guitar starts using the following variations:
E |-10-10-9-5-5-7-9-7-5-4-----------------------------------------------------|
B |---------------------------------------------------------------------------|
G#|---------------------------------------------------------------------------|
E |---------------------------------------------------------------------------|
B |---------------------------------------------------------------------------|
E |---------------------------------------------------------------------------|

E |-10-10-12-14-12-10-12-10-9-5-----------------------------------------------|
B |---------------------------------------------------------------------------|
G#|---------------------------------------------------------------------------|
E |---------------------------------------------------------------------------|
B |---------------------------------------------------------------------------|
E |---------------------------------------------------------------------------| 
Tap to rate this tab
# A B C D E F G H I J K L M N O P Q R S T U V W X Y Z