Song name
# A B C D E F G H I J K L M N O P Q R S T U V W X Y Z

Xlooking Forwardx - Cop Out tab

Artist - xLooking Forwardx
Album - What This Means to Me
www.xlookingforwardx.com

Standard Tuning
. - Palm Mute
~ - Let Ring
/ - Slide


----------------------------------------------------|
----------------------------------------------------|
-----8-2~--3-----8-2~--2-2-2-2----------------------|
-2~--8-2~--3-2~--8-2~--2-2-2-2----------------------|
-2~--6-0~--1-2~--6-0~--0-0-0-0----------------------|
-0~----------0~-------------------------------------|
                       . . . .

----------------------------------------------------|
----------------------------------------------------|
-------8--2-----3-------8--2------------------------|
-2-----8--2-x11-3-2-----8--2-x11--------------------|
-2-x11-6--0-----1-2-x11-6--0------------------------|
-0----------------0---------------------------------|
          .                .

----------------------------------------------------|
----------------------------------------------------|
---------7/9/7----5-7-------------------------------|
-2-2-2-2-7/9/7-2--5-7-2-2-2-2-5/7/5-2---5---3-------|
-2-2-2-2-5/7/5-2--3-5-2-2-2-2-5/7/5-2---5---3-------|
-0-0-0-0-------0-0-0--0-0-0-0-3/5/3-0-0-3-0-1-------|
   . . .         . .    . . .         .   .

----------------------------------------------------|
----------------------------------------------------|
----------------------------------------------------|
-2--------------------------------------------------|
-2--------------------------------------------------|
-0--------------------------------------------------|

----------------------------------------------------|
----------------------------------------------------|
-9-9-9-7-7-7-9-9-9-10-10-10-3-3-3-3-3-3-2-2-2-2-2-2-|
-9-9-9-7-7-7-9-9-9-10-10-10-3-3-3-3-3-3-2-2-2-2-2-2-|
-7-7-7-5-5-5-7-7-7-8--8--8--1-1-1-1-1-1-0-0-0-0-0-0-|
----------------------------------------------------|
                            . .   . .   . .   . .

----------------------------------------------------|
----------------------------------------------------|
-7-9-10-7-9-10--------------------------------------|
-7-9-10-7-9-10-2------------------------------------|
-5-7-8--5-7-8--2------------------------------------|
---------------0------------------------------------|
               .
The palm muted E chord is just strummed in a breakdown pattern. listen to the song for it.

----------------------------------------------------|
----------------------------------------------------|
-------9-------9-------9--7-9-10-7-9-10-------------|
-2-2-2-9-2-2-2-9-2-2-2-9--7-9-10-7-9-10-------------|
-2-2-2-7-2-2-2-7-2-2-2-7--5-7-8--5-7-8--------------|
-0-0-0---0-0-0---0-0-0------------------------------|
 . . .   . . .   . . .

----------------------------------------------------|
----------------------------------------------------|
----------------------------------------------------|
-2--------------------------------------------------|
-2--------------------------------------------------|
-0--------------------------------------------------|

Thats basically it. Pretty simple song. I'm working on doing most of the What This Means
Me album. If you have any questions i.m. me on aim at xchasegrillox or myspace at
www.myspace.com/chasegrillo.
Tap to rate this tab
 
# A B C D E F G H I J K L M N O P Q R S T U V W X Y Z