Song name
# A B C D E F G H I J K L M N O P Q R S T U V W X Y Z

Xpdc - Bunga Larangan tab

Help us improve GuitareTab! Take a short survey!
This song i noe...
i get from my dream.
u must play this song
klau tk kao mati...

By nur lianafarhayu(north vista.Sec 2n2)<2006>


----3-4-2-1-44-3-2-3----------2--------0-0---|
-2-----4-2-1--------3---------------2/3------|
---------------------------------------------|
---------------------------------------------|
---------------------------------------------|
---------------------------------------------|


-----------2-3-1-4-3-2-3----4-3--2--3--4--5-----9-8-7-|
----------1-3---2----2--------------------------------|
13--2-3-----------------------------------------------|
------------------------------------------------------|
------------------------------------------------------|
------------------------------------------------------|
Related for Bunga Larangan tab