Song name
# A B C D E F G H I J K L M N O P Q R S T U V W X Y Z

Yamazaki Masayoshi - One More Time One More Chance tab

-------------------------------------------------------------------------------
              One more time, One more chance - Yamazaki Masayoshi
-------------------------------------------------------------------------------
Tuning: E A D G B E

  Q=60

 4/4
 Intro
|-7----7-----|-7-----7----|-7-----9----|-7-----7----|
|-5----5-----|-6-----6----|-7-----7----|-6-----6----|
|-6----------|-6--6-------|-7--7-------|-7--7-----7-| 
|-7----------|------------|------------|------------| x2
|-0--------0-|-0--------0-|-0--------0-|-0----------|
|------------|------------|------------|------------|

 Vesre 
|-------7----|-------7----|-9-----9----|-7-----7----|
|-5-----5----|-6-----6----|-7-----7----|-6-----6----|
|----6-------|----6-------|-7--7-------|-7--7-------|
|------------|------------|-0--------0-|-0--------0-| x2
|-0--------0-|-0--------0-|------------|------------|
|------------|------------|------------|------------|
  Koreijou nani o ushinaeba kokoro wa yurusareru no
  Dore hodo no itami naraba mou ichido kimi ni aeru

|-------4----|-------2----|-------2----|-------1----|
|-5-----5----|-2-----2----|-3-----3----|-1----------|
|----6-------|-2----------|-4----------|-2--2-------|
|----6-------|----4-----4-|----4-------|------------| x2
|-4----------|------------|-2--------0-|------------|
|----------4-|-2----------|------------|-1--------1-|
  One more time kisetsu yo utsurowanaide
  One more time fuzake atta jikan yo

Repeat Verse 1 except final measure,   |-1~~--------|
                        then           |-1~~--------|     
                            play     > |-2~~--------|
                                this > |-3~~--------|
                                     > |-3~~--------|
                                       |-1~~--------|

  Kuichigau toki wa itsumo boku ga saki ni oreta ne
  Wagamama na seikaku ga naosara itoshiku saseta
  One more chance kioku ni ashi o torarete
  One more chance tsugi no basho o erabenai
                                       
 Chorus
|-0----------|------------|------------|-------2----|
|-2-----2----|-2-----2----|-3-----3----|-2----------|
|-2-----2----|-1-----1----|-4-----4----|-3----------|
|----2-----2-|----2-----2-|----5-----5-|----4-------|
|-0----------|-0----------|------------|------------|
|------------|------------|-3----------|-2--------2-|
  Itsudemo sagashite iru yo dokka ni kimi no sugata o

|-------2----|-------2----|-------2----|-------0----|
|-3----------|------------|------------|-------0----|
|----4-------|-3----------|----2-------|-------1----|
|------------|----4-------|------------|----2-----2-|
|-2--------2-|-2--------2-|-2--------0-|------------|
|------------|------------|------------|-0----------|
  Mukai no HOOMU rojiura no mado
  Konna toko ni iru hazu mo nai no ni 

Repeat Chorus, in the end play this  > |-0~~--------|
                                     > |-0~~--------|
                                     > |-1~~--------|
                                       |-2~~--------|
                                       |-2~~--------|
                                       |-0~~--------|

  Negai ga moshimo kanau nara ima sugu kimi no moto e
  Dekinai koto wa mou nanimo nai
  Subete kakete dakishimete miseru yo

 Bridge 
|------------|------------|-0----------|-0~---------|
|-3-----3----|-3-----3----|-2-----2----|-2~----2----|
|-4-----4----|-4-----4----|-------2----|-2~----2----|
|------------|------------|----2-------|-2~---------|
|----5-------|----5-------|-0--------0-|-0~-------0-|
|-3--------3-|-3--------5-|------------|------------|

|------------|------------|
|-3-----3----|-3~~--------|
|-4-----4----|-4~~--------|
|------------|-5~~--------|
|----5-------|------------|
|-3--------3-|-3~~--------|

 Verse x1

  Sabishisa magirasu dake nara
  Dare demo ii hazu na no ni
  Hoshi ga ochisou na yoru dakara
  Jibun o itsuwarenai
  One more time kisetsu yo utsurowanaide
  One more time fuzake atta jikan yo

 Chorus x1

  Itsudemo sagashite iru yo dokka ni kimi no sugata o
  Kousaten demo yume no naka demo
  Konna toko ni iru hazu mo nai no ni
  Kiseki ga moshimo okoru nara ima sugu kimi ni misetai
  Atarashii asa korekara no boku
  Ienakatta suki to iu kotoba mo

 Bridge 2
|-------1----|-------3----|------------|------------|
|-------1----|-------0----|-1-----0----|-1-----1----|
|------------|----0-----0-|-2-----0----|-2-----2----|
|----3-----3-|------------|----2-----0-|----2-----2-|
|------------|------------|-0----------|------------|
|-1----------|-3----------|-------3----|-2----------|
  Natsu no omoide ga mawaru...
|-------1----|-------3----|-0~~---0~~--|----0-------|
|-------1----|-------0----|-0~~---0~~--|-------0----|
|------------|----0-----0-|-2~~---2~~--|----------1-|
|----3-----3-|------------|-2~~---2~~--|------------|
|------------|------------|-2~~---2~~--|------------|
|-1----------|-3----------|-0~~---0~~--|-0----------|
  ...fui ni kieta kodou

 Chorus x3(with repeats)

  Itsudemo sagashite iru yo dokka ni kimi no sugata o
  Akegata no machi sakuragichou de
  Konna toko ni kuru hazu mo nai no ni
  Negai ga moshimo kanau nara ima sugu kimi no moto e
  Dekinai koto wa mou nanimo nai
  Subete kakete dakishimete miseru yo

  Itsudemo sagashite iru yo dokka ni kimi no kakera o
  Tabisaki no mise shinbun no sumi
  Konna toko ni aru hazu mo nai no ni
  Kiseki ga moshimo okoru nara ima sugu kimi ni misetai
  Atarashii asa kore kara no boku
  Ienakatta suki to iu kotoba mo

  Itsu demo sagashite shimau dokka ni kimi no egao o
  Kyuukou machi no fumikiri atari
  Konna toko ni iru hazu mo nai no ni
  Inochi ga kurikaesu naraba nandomo kimi no moto e
  Hoshii mono nado mou nanimo nai
  Kimi no hoka ni taisetsu na mono nado

 Bridge x1

 Ending
|-------7----|-------7----|-7-----9----|-7----------|-0~~-|
|-5----------|-6----------|-7----------|-6-----6----|-0~~-|
|----6-----0-|----6-----0-|----7-----7-|-7--7-----0-|-2~~-|
|------------|------------|-0----------|-0----------|-2~~-|
|-0----------|-0----------|------------|------------|-0~~-|
|------------|------------|------------|------------|-----|

http://www.office-augusta.com/yama/
Tap to rate this tab
 
# A B C D E F G H I J K L M N O P Q R S T U V W X Y Z