Song name
# A B C D E F G H I J K L M N O P Q R S T U V W X Y Z

Yaphet Kotto - Suffocate tab

Guitar1: Note : NOT COMPLETE :
E||----------------------|----------------------|----------------------|
B||----------------------|----------------------|----------------------|
G||-------13-----13-- ---|----------------- -----|---------------------|
D||----------------------|---14---13----14---13-|----------------------|
A||--11-------11-------- |-----------------------|---------------------|
E||----------------------|-12---11---12---11-----|---------------------|

E||----------------------|----------------------|----------------------|
B||----------------------|----------------------|----------------------|
G||-------13-------------|----------------------|----------------------|
D||------------13--------|----------------------|----------------------|
A||--11------------12/---|----------------------|----------------------|
E||-------11-------------|----------------------|----------------------|

E||----------------------|----------------------|----------------------|
B||----------------------|----------------------|----------------------|
G||----------------------|----------------------|----------------------|
D||-----4-----3----------|-----4------3---------|----------------------|
A||--2-----1--------4----|--2-----1---------3/--|----------------------|
E||-------------2--------|--------------1/-------|---------------------|

GUITAR solo          repeat
E||--9------9------------|----------------------|-------------------|
B||---9---9--9-----------|----------------------|-------------------|
G||----9-----------------|----------------------|-------------------|
D||----------------------|----------------------|-------------------|
A||----------------------|----------------------|-------------------|
E||----------------------|----------------------|-------------------|
Tap to rate this tab
# A B C D E F G H I J K L M N O P Q R S T U V W X Y Z