Song name
# A B C D E F G H I J K L M N O P Q R S T U V W X Y Z

Yazoo - Dont Go tab

Help us improve GuitareTab! Take a short survey!
I know its played on keyboard but its cool to play on guitar. :)
Check out this song at http://www.youtube.com/watch?v=FaHuzkyurC0

Main theme
E|-----9-9-8-8-6--4h6p4-9-9-8-8-6-13-13--------|
B|-9-9------------------------------------11---|
G|--------------------------------------13--13-| x2
D|---------------------------------------------|
A|---------------------------------------------|
E|---------------------------------------------|

Pre-Chorus
E|--------------------|
B|--------------------|
G|---10---10----------|
D|-----------11-10-8--|
A|-8----8-------------|
E|--------------------|
Related for Dont Go tab