Song name
# A B C D E F G H I J K L M N O P Q R S T U V W X Y Z

Yeah Yeah Yeahs - Rich tab

INTRO
|-----------------------------------------------17h20p17h20---------------|
|----------15-15-------------19-19-------17h19----------------------------|
|----------------16-16-------------19-19----------------------------------|
|--14-14---------------17-17----------------------------------------------|
|-------------------------------------------------------------------------|
|-------------------------------------------------------------------------|

VERSE
|-------------------------------------------------------------------------|
|-------------------------------------------------------------------------|
|-------------------------------------------------------------------------|
|-------------------------------------------------------------------------|
|-------------------------------------------------------------------------|
|--0-0--7-7--3-3--2-2\----0-0--7-7--3-3--10-10\---------------------------|

CHORUS
|-------------------------------------------------------------------------|
|-------------------------------------------------------------------------|
|-------------------------------------------------------------------------|
|---14------17-----19------9----7----12------14------5--5-----------------|
|---14------17-----17------9----7----12------14------5--5-----------------|
|---12-x16--15-x8--15-x8---7-x8-5-x4-10-x4---12-x12--3--3-----------------|
Tap to rate this tab
# A B C D E F G H I J K L M N O P Q R S T U V W X Y Z