Guitaretab - guitar tabs
Song name
# A B C D E F G H I J K L M N O P Q R S T U V W X Y Z

Yeah Yeah Yeahs - Modern Romance tab

e----------------------------------|
b----------------------------------|
g----------------------------------|
d--7-7-7-7-7-7-9-6-7-7-7-7-7-7-6-9-| 4x
a--7-7-7-7-7-7-7-7-7-7-7-7-7-7-7-7-|
e----------------------------------|
                              verse
e------------------------------------------------------------------|
b------------------------------------------------------------------|
g------------------------------------------------------------------|
d--7-7-7-7-7-7-6-9-7-7-7-7-7-7-9-6-7-7-7-7-7-7-6-9-7-7-7-7-7-7-9-6-|
a--7-7-7-7-7-7-7-7-7-7-7-7-7-7-7-7-7-7-7-7-7-7-7-7-7-7-7-7-7-7-7-7-|
e------------------------------------------------------------------|

e------------------------------------------------------------------|
b------------------------------------------------------------------|
g------------------------------------------------------------------|
d--7-7-7-7-7-7-9-6-7-7-7-7-7-7-6-9-7-7-7-7-7-7-9-6-7-7-7-7-7-7-6-9-|
a--7-7-7-7-7-7-7-7-7-7-7-7-7-7-7-7-7-7-7-7-7-7-7-7-7-7-7-7-7-7-7-7-|
e------------------------------------------------------------------|

e------------------------------------------------------------------|
b------------------------------------------------------------------|
g------------------------------------------------------------------|
d--7-7-7-7-7-7-9-6-7-7-7-7-7-7-6-9-7-7-7-7-7-7-9-6-7-7-7-7-7-7-9-6-|
a--7-7-7-7-7-7-7-7-7-7-7-7-7-7-7-7-7-7-7-7-7-7-7-7-7-7-7-7-7-7-7-7-|
e------------------------------------------------------------------|
[ Tab from: http://www.guitaretab.com/y/yeah-yeah-yeahs/34894.html ]
e------------------------------------------------------------------|
b------------------------------------------------------------------|
g------------------------------------------------------------------|
d--7-7-7-7-7-7-9-6-7-7-7-7-7-7-9-6-7-7-7-7-7-7-9-6-7-7-7-7-7-7-6-9-|
a--7-7-7-7-7-7-7-7-7-7-7-7-7-7-7-7-7-7-7-7-7-7-7-7-7-7-7-7-7-7-7-7-|
e------------------------------------------------------------------|

                           Breakdown
e-----------------------------| e-3s8------------3-8-|
b-----------------------------| b--------------------|
g-----------------------------| g--------------------| back up to verse
d--12-12-12-12-12-12-12-12-12-| d--------------------|
a--12-12-12-12-12-12-12-12-12-| a--------------------|
e--10-10-10-10-10-10-10-10-10-| e--------------------|

                       4:37 Modern Romance pt.2 intro
e-------------------------------------------------------|
b-------------------------------------------------------|
g-------------------------------------------------------|
d-5--55--5--55--5--55--5--55--5--55--5--55--2--22--2--22|
a-5--55--5--55--5--55--5--55--5--55--5--55--2--22--2--22|
e-3--33--3--33--3--33--3--33--3--33--3--33--0--00--0--00|
                         
e--------------------------------------------------------------------------|
b--------------------------------------------------------------------------|
g--------------------------------------------------------------------------|
d-5--55--5--55--2--22--2--22-10-1010-10-1010--7--77--7--77-7/12--12\-777777|
a-5--55--5--55--2--22--2--22-10-1010-10-1010- 7--77--7--77-7/12--12\-777777|
e-3--33--3--33--0--00--0--00--8--8-8--8--8-8--5--55--5--55-5/10--10\-555555|
 
e---------------------------------------------------------|
b---------------------------------------------------------|
g---------------------------------------------------------|
d-5--55--5--55--2--22--2--22----5--55--5--55--2--22--2--22|
a-5--55--5--55--2--22--2--22----5--55--5--55--2--22--2--22|
e-3--33--3--33--0--00--0--00--5\3--33--3--33--0--00--0--00|



             Outro
e--------------------------------|
b--------------------------------|
g--------------------------------|
d-10------12------14----777777777|
a-10------12------14----777777777|
e-8-------10------12----555555555|
Related for Modern Romance tab
×
Modern Romance