Song name
# A B C D E F G H I J K L M N O P Q R S T U V W X Y Z

Years Around The Sun - Miles Away tab

-------------------------------------------------------------
			     Miles Away - Years Around the Sun 
-------------------------------------------------------------
Tabbed by: James Madden
Email: madzda_7@hotmail.com

Tuning:Standard EADGBe


Verse 1
e|-------------------------------------------------------------|
B|-------------------------------------------------------------|
G|-------7-----5------------------7-----5----------------------|
D|---0-----0-----0---8-8---0---0----0-----0---8-8---0----------|
A|-------------------------------------------------------------|
E|--6--6-----6-----6-----6---6--6-----6-----6---6--------------|

Bridge
e|-------------------------------------------------------------|
B|-------------------------------------------------------------|
G|-------------------------------------------------------------|
D|----10---10-10---10-10---10-10---10----8-------8-------8-----|
A|--8----8-------8-------8-------8----10---10-10---10-10---10--|
E|-------------------------------------------------------------|

e|-------------------------------------------------------------|
B|-------------------------------------------------------------|
G|-------------------------------------------------------------|
D|-----8-------------------------------------------------------|
A|--10---------------------------------------------------------|
E|-------------------------------------------------------------|

Verse 2
e|------------------------------------------------------------|
B|------------------------------------------------------------|
G|------------------------------------------------------------|
D|----8---8-8---8----10---10-10---10----8----8-8----8-8----8--|
A|--6---6-----6--6/8----8-------8----10---10-----10-----10----|
E|------------------------------------------------------------|






Verse 3
e|------------------------------------------------------------|
B|------------------------------------------------------------|
G|------------------------------------------------------------|
D|----3---3-3---3----5---5-5---5---3-----3---3----3---3---3---|
A|--1---1-----1--1/3----3----3---5----5----5--------5---5-----|
E|------------------------------------------------------------|

Verse 4
e|------------------------------------------------------------|
B|------------------------------------------------------------|
G|------------------------------------------------------------|
D|----3---3-3---3----5---5-5---5---3---3---3---3---3---3---3--|
A|--1---1-----1--1/3----3----3---5---5---5---5---5----5---5---|
E|------------------------------------------------------------|

Solo
e|------1-----3-----1-----------------------3-----6------------|
B|----3---3-----3-----3-----------3---6-3-----3-----3----------|
G|--3-------3-----3-----3-------3---3-----3-----3-----3--------|
D|-------------------------------------------------------------|
A|-------------------------------------------------------------|
E|-------------------------------------------------------------|

e|--8-------8-------8-------8-----6-------6-------6-------6----|
B|----6---6---6---6---6---6---6-----8---8---8---8---8---8---8--|
G|------7-------7-------7-------7-----7-------7-------7-------7|
D|-------------------------------------------------------------|
A|-------------------------------------------------------------|
E|-------------------------------------------------------------|

e|------1-----3-----1-----------------------3------5-6---------|
B|----3---3-----3-----3-----------3---6-3-----3----------------|
G|--3-------3-----3-----3-------3---3-----3-----3--------------|
D|-------------------------------------------------------------|
A|-------------------------------------------------------------|
E|-------------------------------------------------------------|

e|--6-5-3-----------6-------6-----6----------------------------|
B|--------6-6/8-6-----8---8---8--------------------------------|
G|----------------7-----7-------7------------------------------|
D|-------------------------------------------------------------|
A|-------------------------------------------------------------|
E|-------------------------------------------------------------|





Verse 1 > Bridge 		x3
Verse 2 				x2
Verse 3
Verse 4
Verse 1
Bridge
Verse 2 				x2
Verse 3 > Verse 4 	x2
Solo
Verse 3 > Verse 4 	x2



************************************

| /   slide up
| \   slide down
| h   hammer-on
| p   pull-off
| ~   vibrato
| +   harmonic
| x   Mute note
| b   Bend
| pb  Pre-bend
| br  Bend release
| pbr Pre-bend release
| brb Bend release bend

************************************
Tap to rate this tab
 
# A B C D E F G H I J K L M N O P Q R S T U V W X Y Z