Yeng Constantino - Wag Kang Magtatanong tab

  Song: Wag Kang Mag Tatanong
Artist: Yeng Constantino
Tuning: Standard

Tabber: jethro_arce@yahoo.com

wala akong makitang tabs jan kaya ako na mismo ang gumawa sna magustuhan nino ;)


Verse:
|---------|
|---------|
|---------|
|-2---7---|2X
|-2---7---|
|-0---5---|
  PM

Refrain:
|-------------|
|-------------|
|-------------|
|-4---7--(9)--| 2X
|-4---7--(9)--|
|-2---5--(7)--| ========== 

yung mga lead na naririnig nyo flock nyo lang yung mga traditional chords yun na yon . ;) 

Chorus:

|-------------|
|-------------|
|----4--------|2X
|-2--4--4--7--|
|-2--2--4--7--|
|-0-----2--5--|

Verse 2 :

|---------|
|---------|
|---------|
|-2---7---|2X
|-2---7---|
|-0---5---|
  PM

Refrain 2:
|-------------|
|-------------|
|-------------|
|-4---7--(9)--| 2X
|-4---7--(9)--|
|-2---5--(7)--|

Chorus 2:
|-------------|
|-------------|
|----4--------|
|-2--4--4--7--|2X
|-2--2--4--7--|
|-0-----2--5--|

Bridge:

|-------------|
|-------------|
|----4--------|
|-2--4--4--7--|2X
|-2--2--4--7--|
|-0-----2--5--|

Ending : Lead 

|----------------------------|
|------------------12~-------|
|-12^14-12^14-12^14---14-12--|
|----------------------------|
|----------------------------|
|----------------------------|
Tap to rate this tab
 
# A B C D E F G H I J K L M N O P Q R S T U V W X Y Z