Song name
# A B C D E F G H I J K L M N O P Q R S T U V W X Y Z

Yeng Constantino - Pangarap Lang tab

Tuning: Standard tuning lang po 'to...

First time ko po to... Sana po tama...
Intro lang po ito... Favorite song ko po ito eh...

Intro:
Sa part po na ito... dalawang strum lang po each chord. Mahina lang po ung unang strum...
       E          G#m              C#m                       A
E|-----------|-----------|---------------------|--------11-11------------|
B|--------9--|--------9--|--------9-9-7---7----|--------------7-9-7-7----|
G|--9s8s9----|--9s8s9----|--9s8s9-------9---6--|--9s8s9---------------9--|
D|-----------|-----------|---------------------|-------------------------|
A|-----------|-----------|---------------------|-------------------------|
E|-----------|-----------|---------------------|-------------------------|

Kapain niyo na lang po ung struming sa part na 'to!
       E               G#m                    C#m
E|-----------|---------------------|--------11-11----------|
B|--------9--|--------9-9-7---7----|--------------7-9-7-7--|
G|--9s8s9----|--9s8s9-------9---6--|--9s8s9----------------|
D|-----------|---------------------|-----------------------|
A|-----------|---------------------|-----------------------|
E|-----------|---------------------|-----------------------|

Dapat po mabilis sa part na ito ha!
           A break
E|---------------------------|
B|---------------------------|
G|--9-9-8-8-4-4-8-8-2-2-4-4--|
D|---------------------------|
A|---------------------------|
E|---------------------------|

Verse:(Single strum per chord!)
    E              G#m
Pangarap kong makarating sa buwan
   C#m               A
At lumipad hanggang doon sa kalawakan

Refrain 1: (Kapain niyo na lang yung strumming nito)
B                 A                   B
Nais kong humabol sa pag-ikot ng mundo
   A             B pause
Sumabay sa awit ko

Chorus:
E            G#m
Sasakay ako sa ating pangarap
        C#m              A       B
Basta't ang kasama ko'y ikaw, may liwanag
F            Am
Sasakay ako sa ating pangarap
          Dm                 Bb          C
Hangga't ang laman ng puso ko'y ikaw, may liwanag

Verse 2:
E          G#m          C#m         A
May isang nananalangin sa tuwing gabi
E           G#m       C#m         A
Hinahangad na sana ako ay mapansin

Refrain 2:
B               A               B
Humahabol lang sa pag-ikot ng mundo
   A             B--
Sumabay sa awit ko

(Repeat Chorus)

Solo: (Itong bahagi na ito ang pinaka hindi ko sigurado...)
                  E                                 G#m
E|----------------------------------|-----------------------------------|
B|----------------------------------|-----------------------------------|
G|--9s11-11s13-14-12-13-11-12-10-9--|--9s11-11s13-16-14-15-13-14-12-11--|
D|----------------------------------|-----------------------------------|
A|----------------------------------|-----------------------------------|
E|----------------------------------|-----------------------------------|
               C#m                         A               B
E|---------------------------------|---------------|---------------|
B|---------------------------------|---------------|---------------|
G|--11s13-13s15-16-14-15-13-14-12--|--11-11-11-11--|--13-13-13-13--|
D|---------------------------------|---------------|---------------|
A|---------------------------------|---------------|---------------|
E|---------------------------------|---------------|---------------|

(Repeat Chorus 2x)

Gusto ko lang pong maghigh sa lahat ng mga taga st. angela sa UST High School 06-07! Si 
po ito! Saka po sa lahat ng taga Angelicum atLourdes school of Q.C. lalong lalo na kay 
Boy! Hi din po sa mga pinsan ko at sa lahat ng nakakakilala sa akin!
End
Tap to rate this tab
# A B C D E F G H I J K L M N O P Q R S T U V W X Y Z