Song name
# A B C D E F G H I J K L M N O P Q R S T U V W X Y Z

Yes - Dont Kill The Whale tab

e----------------------------------------------------------------------------|
B------------------------------10-------------------------------------10-----|
G-----9b-9-7-------------7-9-11---7----9b-9-7-------------7-9-11-10-11---7---|
D------------7-9-----7-9-----------------------7-9----7-9--------------------|
A----------------------------------------------------------------------------|
E----------------------------------------------------------------------------|


e----15-14-12-10-12---10-12---15-17-15-17-14---14-15-17--14-15-18--21-18-19--|
B----------------------------------------------------------------------------|
G----------------------------------------------------------------------------|
D----------------------------------------------------------------------------|
A----------------------------------------------------------------------------|
E----------------------------------------------------------------------------|
Tap to rate this tab
# A B C D E F G H I J K L M N O P Q R S T U V W X Y Z