Song name
# A B C D E F G H I J K L M N O P Q R S T U V W X Y Z

Yes - Run Through The Light tab

Help us improve GuitareTab! Take a short survey!
----------------------------------------------------------------------------
			     Run Through the Light - Yes
----------------------------------------------------------------------------
Tabbed by:S/ash

Tuning: normal

Intro
e|-17--------17--------17--------15--15--|
B|----17--------17--------17-------------|
G|o------14--------14--------14----------|
D|o--------------------------------------|
A|---------------------------------------|
E|---------------------------------------|

e|-13--13--------13--------13--------15--15--17|
B|--------13--------13--------13---------------|
G|-----------10--------10--------10-----------0|
D|--------------------------------------------0|
A|---------------------------------------------|
E|---------------------------------------------|

play this afew times for the intro, this also appears at 2:31 like this

e|-17-17-17-17-17-17-17-17-17--15-15--|
B|-17-17-17-17-17-17-17-17-17--15-15--|
G|-14-14-14-14-14-14-14-14-14--12-12--|
D|------------------------------------|
A|------------------------------------|
E|------------------------------------|

e|-13-13-13-13-13-13-13-13-13-13--15-15--17-|
B|-13-13-13-13-13-13-13-13-13-13--15-15--17-|
G|-10-10-10-10-10-10-10-10-10-10--12-12--14-|
D|------------------------------------------|
A|------------------------------------------|
E|------------------------------------------|

e|-17--------17--------17--------15--15--|
B|----17--------17--------17-------------|
G|o------14--------14--------14----------|
D|o--------------------------------------|
A|---------------------------------------|
E|---------------------------------------|

e|-13--13--------13--------13--------15--15--17|
B|--------13--------13--------13---------------|
G|-----------10--------10--------10-----------0|
D|--------------------------------------------0|
A|---------------------------------------------|
E|---------------------------------------------|

Thats it for now I'll be back with more
Related for Run Through The Light tab