Guitaretab - guitar tabs
Song name
# A B C D E F G H I J K L M N O P Q R S T U V W X Y Z

Yngwie Malmsteen - Demon Driver tab

#----------------------------------PLEASE NOTE---------------------------------#
#This file is the author's own work and represents their interpretation of the #
#song. You may only use this file for private study, scholarship, or research. #
#------------------------------------------------------------------------------#

DEMON DRIVER
As recorded by Yngwie Malmsteen
(From the 1990 Album ECLIPSE)

Transcribed by The Beholder
	

Words by Yngwie Malmsteen & Erica Norberg Music by Yngwie Malmsteen

Gtr I (Eb Ab Db Gb Bb Eb) - 'Untitled'
Gtr II (Eb Ab Db Gb Bb Eb) - 'Untitled'

 Intro
  Q=240
                         Am      G                      A5    F/A
 4/4
  Gtrs I, II
                PM-----|   PM|     PM|    ~~~       PM|   PM|    PM|
  H     H       Q  E E E E E E   E E E E +Q   E E   E E E E E  E E E
|-------------|----------------|------------------|-------------------|
|-------------|----------------|------------------|-------------------|
|-------------|----------5-----|-4----------------|-----9-----10------|
|-------------|----------7-----|-5-----7-(7)--5h7-|-----7------7------|
|------12\----|-0--0-0-0---0-0-|---0-0------------|-0-0---0-0----0-0--|
|-------------|----------------|------------------|-------------------|


  D5/A  A5              A5    Am      G                  Dm/A C/G
    PM|   PM----------|   PM|   PM|     PM|    ~~~ PM|
  E E E E E E E E   E E E E E E E E   E E E E +Q   E E   Q.   E +H
|-----------------|-----------------|------------------|---------------|
|-----------------|-----------------|------------------|-6----5-(5)----|
|-7-----9---------|-----9-----5-----|-4----------------|-7----5-(5)----|
|-7-----7---------|-----7-----7-----|-5-----7-(7)------|-7----5-(5)----|
|---0-0---0-0-0-0-|-0-0---0-0---0-0-|---0-0--------0-0-|---------------|
|-----------------|-----------------|------------------|---------------|


  C/G  G            A5    Am      G                      A5    F/A
                      PM|   PM|     PM|              PM|   PM|    PM|
  Q.   Q.   Q    Q  E E E E E E   E E E E +Q   E E   E E E E E  E E E
|--------------|----------------|------------------|------------------|
|-5----3----3--|----------------|------------------|------------------|
|-5----4----4--|----9-----5-----|-4----------------|-----9-----10-----|
|-5----5----5--|----7-----7-----|-5-----7-(7)--0h2-|-----7------7-----|
|--------------|-0----0-0---0-0-|---0-0--------0---|-0-0---0-0----0-0-|
|--------------|----------------|------------------|------------------|


  Bm    A5              A5    Am      G                Dm/A C/G
    PM|   PM----------|   PM|   PM|     PM|    ~~~
  E E E E E E E E   E E E E E E E E   E E E E +H       Q.   E +H
|-----------------|-----------------|----------------|---------------|
|-----------------|-----------------|----------------|-6----5-(5)----|
|-7-----9---------|-----9-----5-----|-4--------------|-7----5-(5)----|
|-9-----7---------|-----7-----7-----|-5-----7-(7)----|-7----5-(5)----|
|---0-0---0-0-0-0-|-0-0---0-0---0-0-|---0-0----------|---------------|
|-----------------|-----------------|----------------|---------------|


  C/G  G            A5    Am      G                      A5    F/A
                      PM|   PM|     PM|              PM|   PM|    PM|
  Q.   Q.   Q    Q  E E E E E E   E E E E +Q   E E   E E E E E  E E E
|--------------|----------------|------------------|------------------|
|-5----3----3--|----------------|------------------|------------------|
|-5----4----4--|----9-----5-----|-4----------------|-----9-----10-----|
|-5----5----5--|----7-----7-----|-5-----7-(7)--5h7-|-----7------7-----|
|--------------|-0----0-0---0-0-|---0-0------------|-0-0---0-0----0-0-|
|--------------|----------------|------------------|------------------|


  Bm    A5              A5    Am
  PM|   PM------------|   PM|   PM|
  E E E E E E E E   E E E E E E E E
|-----------------|-----------------|
|-----------------|-----------------|
|-7-----9---------|-----9-----5-----|
|-9-----7---------|-----7-----7-----|
|---0-0---0-0-0-0-|-0-0---0-0---0-0-|
|-----------------|-----------------|


  G                  Dm/A C/G             G
    PM|    ~~~
  E E E E +Q   E E   Q.   E +H       Q.   Q.   Q
|------------------|---------------|--------------||
|------------------|-6----5-(5)----|-5----3----3--||
|-4----------------|-7----5-(5)----|-5----4----4--||
|-5-----7-(7)--5h7-|-7----5-(5)----|-5----5----5--||
|---0-0------------|---------------|--------------||
|------------------|---------------|--------------||


   Verse 1&2
    D/B            G/B                  A
    Gtr I
    H..            E   +H..             E
||-------------------|--------------------|
||o-7--------------8-|-(8)--------------5-|
||--7--------------7-|-(7)--------------6-|
||--9--------------9-|-(9)--------------7-|
||o------------------|--------------------|
||-------------------|--------------------|
|
|   Gtr II
|   PM-------------------------------------
|   Q    E E E E E E    E   E E E E E E E
||-------------------|--------------------|
||o------------------|--------------------|
||-------------------|--------------------|
||-------------------|--------------------|
||o------------------|--------------------|
||--7----7-7-7-7-7-7-|--7---7-7-7-7-7-7-7-|


                   D/B
  +H..             E   +W
|--------------------|---------------------|
|-(5)--------------7-|-(7)-----------------|
|-(6)--------------7-|-(7)-----------------|
|-(7)--------------9-|-(9)-----------------|
|--------------------|---------------------|
|--------------------|---------------------|
|
|----------------------------------------|
|  E   E E E E E E E    E  E E  E E E  E E
|--------------------|---------------------|
|--------------------|---------------------|
|--------------------|---------------------|
|--------------------|-----9-7-------------|
|--------------------|---------10-9-7------|
|--7---7-7-7-7-7-7-7-|--7-------------10-9-|


  D/B            G/B                     E5/B       F#5/C#
  +H       Q   E E   +W                  W           W
|----------7-------|-------------------|----------|-----------------|
|-(7)------7-----8-|-(8)---------------|----------|-----------------|
|-(7)------7-----7-|-(7)---------------|-9--------|-11--------------|
|-(9)------------9-|-(9)---------------|-9--------|-11--------------|
|------------------|-------------------|----------|-----------------|
|------------------|-------------------|----------|-----------------|
|
|  PM--------------------------------|                    PM-----|
|  Q   E E E E E E    E  E E E E E E E   W           H    E E  E E
|------------------|-------------------|----------|-----------------|
|------------------|-------------------|----------|-----------------|
|------------------|-------------------|----------|-----------------|
|------------------|-------------------|----------|-----------------|
|------------------|-------------------|----------|-------9-7-------|
|--7---7-7-7-7-7-7-|--7--7-7-7-7-7-7-7-|-0--------|--6--------10-9--|


  D/B            G/B                  A
  H..            E   +H..             E
|------------------|--------------------|
|-7--------------8-|-(8)--------------5-|
|-7--------------7-|-(7)--------------6-|
|-9--------------9-|-(9)--------------7-|
|------------------|--------------------|
|------------------|--------------------|
|
| PM-------------------------------------
| Q    E E E E E E    E   E E E E E E E
|------------------|--------------------|
|------------------|--------------------|
|------------------|--------------------|
|------------------|--------------------|
|------------------|--------------------|
|-7----7-7-7-7-7-7-|--7---7-7-7-7-7-7-7-|


                   D/B
  +H..             E   +W
|--------------------|----------------------|
|-(5)--------------7-|-(7)------------------|
|-(6)--------------7-|-(7)------------------|
|-(7)--------------9-|-(9)------------------|
|--------------------|----------------------|
|--------------------|----------------------|
|
|----------------------------------------|
|  E   E E E E E E E    E  E E  E E E  E E
|--------------------|----------------------|
|--------------------|----------------------|
|--------------------|----------------------|
|--------------------|-----9-7--------------|
|--------------------|---------10-9-7-------|
|--7---7-7-7-7-7-7-7-|--7-------------10-9--|


  D/B            G/B
  H..            E   +W
|------------------|-------------------|
|-7--------------8-|-(8)---------------|
|-7--------------7-|-(7)---------------|
|-9--------------9-|-(9)---------------|
|------------------|-------------------|
|------------------|-------------------|
|
| PM---------------------------------|
| Q    E E E E E E    E  E E E E E E E
|------------------|-------------------|
|------------------|-------------------|
|------------------|-------------------|
|------------------|-------------------|
|------------------|-------------------|
|-7----7-7-7-7-7-7-|--7--7-7-7-7-7-7-7-|


  N.C.
  ~~
           |--3--|    |--3--|  |--3--| |---3---|
  H.       E  E  E    E  E  E  E  E  E E  E    E  E E
|---------15p14p12-|-----------------------------------||
|------------------|-15p14p12S11-----------------------||
|------------------|-------------12p11p9---------------||
|------------------|---------------------12p==11p=9S8--||
|-7----------------|-----------------------------------||
|------------------|-----------------------------------||
|
|                                      PM-----------|
| W                   H                E    E     E E
|------------------|-----------------------------------||
|------------------|-----------------------------------||
|------------------|-----------------------------------||
|------------------|-----------------------------------||
|------------------|-------------------9----7----------||
|-0----------------|--6--------------------------10-9--||


 Chorus
           Am      G                      A5    F/A      D5/A  A5
  Gtrs I, II
  PM-----|   PM|     PM|    ~~~       PM|   PM|    PM|     PM|   PM----|
  Q  E E E E E E   E E E E +Q   E E   E E E E E  E E E   E E E E E E E E
|----------------|------------------|------------------|------------------|
|----------------|------------------|------------------|------------------|
|----------5-----|-4----------------|-----9-----10-----|-7-----9----------|
|----------7-----|-5-----7-(7)--5h7-|-----7------7-----|-7-----7----------|
|-0--0-0-0---0-0-|---0-0------------|-0-0---0-0----0-0-|---0-0---0-0-0-0--|
|----------------|------------------|------------------|------------------|


      A5    Am      G                  Dm/A C/G             G
  PM|   PM|   PM|     PM|    ~~~ PM|
  E E E E E E E E   E E E E +Q   E E   Q.   E +H       Q.   Q.   Q
|-----------------|------------------|---------------|---------------|
|-----------------|------------------|-6----5-(5)----|-5----3----3---|
|-----9-----5-----|-4----------------|-7----5-(5)----|-5----4----4---|
|-----7-----7-----|-5-----7-(7)------|-7----5-(5)----|-5----5----5---|
|-0-0---0-0---0-0-|---0-0--------0-0-|---------------|---------------|
|-----------------|------------------|---------------|---------------|


     A5    Am      G                      A5    F/A      Bm    A5
       PM|   PM|     PM|              PM|   PM|    PM|     PM|   PM----|
  Q  E E E E E E   E E E E +Q   E E   E E E E E  E E E   E E E E E E E E
|----------------|------------------|------------------|------------------|
|----------------|------------------|------------------|------------------|
|----9-----5-----|-4----------------|-----9-----10-----|-7-----9----------|
|----7-----7-----|-5-----7-(7)--5h7-|-----7------7-----|-9-----7----------|
|-0----0-0---0-0-|---0-0------------|-0-0---0-0----0-0-|---0-0---0-0-0-0--|
|----------------|------------------|------------------|------------------|


      A5    Am      G                Dm/A C/G             G
  PM|   PM|   PM|     PM|    ~~~
  E E E E E E E E   E E E E +H       Q.   E +H       Q.   Q.   Q
|-----------------|----------------|---------------|----------------||
|-----------------|----------------|-6----5-(5)----|-5----3----3---o||
|-----9-----5-----|-4--------------|-7----5-(5)----|-5----4----4----||
|-----7-----7-----|-5-----7-(7)----|-7----5-(5)----|-5----5----5----||
|-0-0---0-0---0-0-|---0-0----------|---------------|---------------o||
|-----------------|----------------|---------------|----------------||


  G#  Am/E       F    G#m/DA5/E A5
                                 \2
  Q.   E +H       Q.   Q.   Q    W           +W
|---------------|--------------|-----------|--------||
|-3----1-(1)----|-1----0-------|-----------|--------||
|-4----2-(2)----|-2----1----2--|-----------|--------||
|-6----2-(2)----|-3----0----2--|-2---------|-(2)----||
|---------------|--------------|-0---------|-(0)----||
|---------------|--------------|-----------|--------||


   Interlude
    Bm           F#/A#         Bm           F#/A#
    Gtr I
     |-3-| |-3-| |-3-| |-3-|    |-3-| |-3-| |-3-| |-3-|
     E E E E E E E E E E E E    E E E E E E E E E E E E
||--10p7-------7-9p6-------6-|-10p7-------7-9p6-------6-|
||o------7---7-------7---7---|------7---7-------7---7---|
||---------7-----------6-----|--------7-----------6-----|
||---------------------------|--------------------------|
||o--------------------------|--------------------------|
||---------------------------|--------------------------|
|
|   Gtr II
|    Q     Q     Q     Q        Q     Q     Q     Q
||---------------------------|--------------------------|
||o--------------------------|--------------------------|
||---------------------------|--------------------------|
||---------------------------|--------------------------|
||o--------------------------|--------------------------|
||---7-----7-----6-----6-----|--7-----7-----6-----6-----|


  Bm           A/C#
   |-3-| |-3-|  |-3--| |-3--|
   E E E E E E  E E  E E  E E
|-10p7-------7-12p9---------9---|
|------7---7--------10---10-----|
|--------7-------------9--------|
|-------------------------------|
|-------------------------------|
|-------------------------------|
|
|  Q     Q      Q      Q
|-------------------------------|
|-------------------------------|
|-------------------------------|
|-------------------------------|
|---------------4------4--------|
|--7-----7----------------------|


  D                 A                D                 B/D#
   |--3--|  |--3--|  |-3--| |-3--|    |--3--|  |--3--|  |--3--|  |--3--|
   E  E  E  E  E  E  E E  E E  E E    E  E  E  E  E  E  E  E  E  E  E  E
|-14p10----------10-12p9---------9-|-14p10----------10-14p11----------11-|
|-------10----10---------10---10---|-------10----10----------12----12----|
|----------11---------------9------|----------11----------------11-------|
|----------------------------------|-------------------------------------|
|----------------------------------|-------------------------------------|
|----------------------------------|-------------------------------------|
|
|  Q        Q        H                Q        Q        Q        Q
|----------------------------------|-------------------------------------|
|----------------------------------|-------------------------------------|
|----------------------------------|-------------------------------------|
|----------------------------------|-------------------------------------|
|--5--------5----------------------|--5--------5--------6--------6-------|
|--------------------5-------------|-------------------------------------|


  Em                B/D#
   |--3--|  |--3--|  |--3--|  |--3--|
   E  E  E  E  E  E  E  E  E  E  E  E
|-15p12----------12-14p11----------11-|
|-------12----12----------12----12----|
|----------12----------------11-------|
|-------------------------------------|
|-------------------------------------|
|-------------------------------------|
|
|  Q        Q        Q        Q
|-------------------------------------|
|-------------------------------------|
|-------------------------------------|
|-------------------------------------|
|--7--------7--------6--------6-------|
|-------------------------------------|


  Em                E#7
   |--3--|  |--3--|  |--3--|  |--3--|
   E  E  E  E  E  E  E  E  E  E  E  E
|-15p12----------12-16p13----------13-|
|-------12----12----------15----15----|
|----------12----------------16-------|
|-------------------------------------|
|-------------------------------------|
|-------------------------------------|
|
|  Q        Q        Q        Q
|-------------------------------------|
|-------------------------------------|
|-------------------------------------|
|-------------------------------------|
|--7--------7--------8--------8-------|
|-------------------------------------|


                                        1.
  F#sus4                                F#
   |--3--|  |--3--|  |--3--|  |--3--|    |--3--|  |--3--|  |--3--|
   E  E  E  E  E  E  E  E  E  E  E  E    E  E  E  E  E  E  E  E  E  E E
|-19p14----------14-19p14----------19-|-18p14----------14-18p14-----------||
|-------14----14----------14----14----|-------14----14----------14-------o||
|----------16----------------16-------|----------15----------------15-----||
|-------------------------------------|-----------------------------------||
|-------------------------------------|----------------------------------o||
|-------------------------------------|-----------------------------------||
|
|  Q        Q        Q        Q          Q        Q        Q        Q
|-------------------------------------|-----------------------------------||
|-------------------------------------|----------------------------------o||
|-------------------------------------|-----------------------------------||
|-------------------------------------|-----------------------------------||
|--9--------9--------9--------9-------|----------------------------------o||
|-------------------------------------|--2--------2--------2--------2-----||


  2.
  F#
   |--3--|  |--3--|  |--3--|  |--3--|
   E  E  E  E  E  E  E  E  E  E  E  E
|-18p14----------14-18p14----------14-|
|-------14----14----------14----14----|
|----------15----------------15-------|
|-------------------------------------|
|-------------------------------------|
|-------------------------------------|
|
|  Q        Q        Q        Q
|-------------------------------------|
|-------------------------------------|
|-------------------------------------|
|-------------------------------------|
|-------------------------------------|
|--2--------2--------2--------2-------|


  F#sus4                                F#
                                                            ~~
   |--3--|  |--3--|  |--3--|  |--3--|    |--3---|  |--3--|
   E  E  E  E  E  E  E  E  E  E  E  E    E   E  E  E  E  E  H
|-19p14----------14-19p14----------18-|-21p=18----------18-21----||
|-------14----14----------14----14----|--------19----19----------||
|----------16----------------16-------|-----------18-------------||
|-------------------------------------|--------------------------||
|-------------------------------------|--------------------------||
|-------------------------------------|--------------------------||
|
|  W                                    +W
|-------------------------------------|--------------------------||
|-------------------------------------|--------------------------||
|-------------------------------------|--------------------------||
|-------------------------------------|--------------------------||
|--9----------------------------------|-(9)----------------------||
|-------------------------------------|--------------------------||


 Guitar Solo
  C#m7
       ~~
                         |--3---|
   Q   H        +Q       E  E   E  S S  S S E    +Q.
|-21--21-------(21)\---|-9------------------------------|
|----------------------|---12---9-12p9------------------|
|----------------------|---------------11p9-9b12-(9)----|
|----------------------|--------------------------------|
|----------------------|--------------------------------|
|----------------------|--------------------------------|
|
|      PM-----------------------------------|
|  Q   E E E E   E   E   E    E    E    E   E     Q   E
|----------------------|--------------------------------|
|----------------------|--------------------------------|
|--9-------------------|--------------------------9---9-|
|--9-------------------|--------------------------9---9-|
|----------------------|--------------------------------|
|------9-9-9-9---9---9-|-9----9----9----9---9-----------|


   ~~~                   ~~
  +W                 Q   Q    +Q.      E
|------------------|----------------------|
|------------------|----------------------|
|-(9)--------------|-9----------------11--|
|------------------|----11---(11)---------|
|------------------|----------------------|
|------------------|----------------------|
|
|      PM--------|       PM|
| +Q   E E E E E E   Q   E E   E  Q.
|------------------|----------------------|
|------------------|----------------------|
|-(9)--------------|-9---------9--9-------|
|-(9)--------------|-9---------9--9-------|
|------------------|----------------------|
|------9-9-9-9-9-9-|-----9-9--------------|


  C#m7
   |-3--|            |-3--|
   E E  E  S S  S  S Q    E  S S  S  S
|--------------------------------------|
|----9---------------9-----------------|
|-12---12-11p9h11h12-----12-11p9h11h12-|
|--------------------------------------|
|--------------------------------------|
|--------------------------------------|
|
|          PM---------------------------
|  Q       E    E    E E     E    E
|--------------------------------------|
|--------------------------------------|
|--9-----------------------------------|
|--9-----------------------------------|
|--------------------------------------|
|----------9----9----9-9-----9----9----|

[ Tab from: http://www.guitaretab.com/y/yngwie-malmsteen/45425.html ]
                                            ~~~~
  |-3--|            |---3---| |---3---|          |--3---|  |--3---|  |--3---|
  Q    E  S S  S  S E  E    E E  E    E    +Q    E E    E  E E    E  E E    E
|---------------------------------------|-------------------------------------|
|-9-----------------9-------------------|----------9---------9----------------|
|-----12-11p9h11h12---12p==11p9------11-|-(11)--11-----11-12-----12p11p9------|
|-------------------------------11------|----------------------------------11-|
|---------------------------------------|-------------------------------------|
|---------------------------------------|-------------------------------------|
|
|-------------------|                            PM----------------------|
| E E     E    E    E    Q         E       +Q    E   E     E   E     E   E
|---------------------------------------|-------------------------------------|
|---------------------------------------|-------------------------------------|
|------------------------9---------9----|--(9)--------------------------------|
|------------------------9---------9----|--(9)--------------------------------|
|---------------------------------------|-------------------------------------|
|-9-9-----9----9----9-------------------|--------9---9-----9---9-----9---9----|


  C#m7
   ~~
                       |-3--|  |--3---|
   H       E  Q   E    E E  E  E E    E  S S  S  S E  E
|-------------------|--------------------------------------|
|-------------------|------------9-------------------------|
|-11------11S18S==9-|-11p9h11h12-----12p11p9----11p9-11b13-|
|-------------------|------------------------11------------|
|-------------------|--------------------------------------|
|-------------------|--------------------------------------|
|
|     PM----------|            PM--------------------|
|  Q  E E  E  E E E    Q       E   E     E    E    E  E
|-------------------|--------------------------------------|
|-------------------|--------------------------------------|
|--9----------------|--9-----------------------------------|
|--9----------------|--9-----------------------------------|
|-------------------|--------------------------------------|
|-----9-9--9--9-9-9-|----------9---9-----9----9----9--9----|


                               ~~~
                |---3---|
  E E  E E E  E E  E    E   E  Q.      +Q     E  E
|---9---------------------|------------------------|
|-9---12p9-9--------------|------------------------|
|------------11p9------11-|-9----------------------|
|-----------------11------|---11------(11)---------|
|-------------------------|------------------10-11-|
|-------------------------|------------------------|
|
|      PM------------|            PM------------|
| Q    E E E  E E    E      Q     E E   E  E  E  E
|-------------------------|------------------------|
|-------------------------|------------------------|
|-9-----------------------|-9----------------------|
|-9-----------------------|-9----------------------|
|-------------------------|------------------------|
|------9-9-9--9-9----9----|-------9-9---9--9--9--9-|


  C#m7
  |--3--| |--3--|                                       |---3---|  |---3---|
  E  E  E E E   E   +Q.     E    S S  S  S  S  S  S  S  E  E    E  E  E    E
|-----------------------------|-12-9-11-12-14-11-12-14-16-12---14-16-17---14-|
|-----------------------------|----------------------------------------------|
|-----------------------------|----------------------------------------------|
|-9---------------------------|----------------------------------------------|
|---11p10-9-7---7b9-(7)-------|----------------------------------------------|
|-----------------------------|----------------------------------------------|
|
|         PM----------------|               PM--------------------------|
| Q       E   E      E  E E E    Q          E     E     E    E     E    E
|-----------------------------|----------------------------------------------|
|-----------------------------|----------------------------------------------|
|-9---------------------------|--9-------------------------------------------|
|-9---------------------------|--9-------------------------------------------|
|-----------------------------|----------------------------------------------|
|---------9---9------9--9-9-9-|-------------9-----9-----9----9-----9----9----|


                                               ~~~~~
   |--3--|  |---3---|  |---3---|  |---3---|
   E  E  E  E  E    E  E  E    E  E  E    E    W                   Q   H.
|-16-17-19-16-17---19-21-17---19----17---19-|-21b24--------------|------------------|
|--------------------------------21---------|--------------------|------------------|
|-------------------------------------------|--------------------|------------------|
|-------------------------------------------|--------------------|------------------|
|-------------------------------------------|--------------------|----19\-----------|
|-------------------------------------------|--------------------|----19\-----------|
|
|           PM-------------------------|             PM--------|       PM---------|
|  Q        E    E     E    E     E    E       Q     E E E E E E   Q   E  E E E E E
|-------------------------------------------|--------------------|------------------|
|-------------------------------------------|--------------------|------------------|
|--9----------------------------------------|--9-----------------|-9----------------|
|--9----------------------------------------|--9-----------------|-9----------------|
|-------------------------------------------|--------------------|------------------|
|-----------9----9-----9----9-----9----9----|--------9-9-9-9-9-9-|-----9--9-9-9-9-9-|


   Interlude
    Bm           F#/A#         Bm           F#/A#
    Gtr I
     |-3-| |-3-| |-3-| |-3-|    |-3-| |-3-| |-3-| |-3-|
     E E E E E E E E E E E E    E E E E E E E E E E E E
||--10p7-------7-9p6-------6-|-10p7-------7-9p6-------6-|
||o------7---7-------7---7---|------7---7-------7---7---|
||---------7-----------6-----|--------7-----------6-----|
||---------------------------|--------------------------|
||o--------------------------|--------------------------|
||---------------------------|--------------------------|
|
|   Gtr II
|    Q     Q     Q     Q        Q     Q     Q     Q
||---------------------------|--------------------------|
||o--------------------------|--------------------------|
||---------------------------|--------------------------|
||---------------------------|--------------------------|
||o--------------------------|--------------------------|
||---7-----7-----6-----6-----|--7-----7-----6-----6-----|


  Bm           A/C#
   |-3-| |-3-|  |-3--| |-3--|
   E E E E E E  E E  E E  E E
|-10p7-------7-12p9---------9---|
|------7---7--------10---10-----|
|--------7-------------9--------|
|-------------------------------|
|-------------------------------|
|-------------------------------|
|
|  Q     Q      Q      Q
|-------------------------------|
|-------------------------------|
|-------------------------------|
|-------------------------------|
|---------------4------4--------|
|--7-----7----------------------|


  D                 A                D                 B/D#
   |--3--|  |--3--|  |-3--| |-3--|    |--3--|  |--3--|  |--3--|  |--3--|
   E  E  E  E  E  E  E E  E E  E E    E  E  E  E  E  E  E  E  E  E  E  E
|-14p10----------10-12p9---------9-|-14p10----------10-14p11----------11-|
|-------10----10---------10---10---|-------10----10----------12----12----|
|----------11---------------9------|----------11----------------11-------|
|----------------------------------|-------------------------------------|
|----------------------------------|-------------------------------------|
|----------------------------------|-------------------------------------|
|
|  Q        Q        H                Q        Q        Q        Q
|----------------------------------|-------------------------------------|
|----------------------------------|-------------------------------------|
|----------------------------------|-------------------------------------|
|----------------------------------|-------------------------------------|
|--5--------5----------------------|--5--------5--------6--------6-------|
|--------------------5-------------|-------------------------------------|


  Em                B/D#
   |--3--|  |--3--|  |--3--|  |--3--|
   E  E  E  E  E  E  E  E  E  E  E  E
|-15p12----------12-14p11----------11-|
|-------12----12----------12----12----|
|----------12----------------11-------|
|-------------------------------------|
|-------------------------------------|
|-------------------------------------|
|
|  Q        Q        Q        Q
|-------------------------------------|
|-------------------------------------|
|-------------------------------------|
|-------------------------------------|
|--7--------7--------6--------6-------|
|-------------------------------------|


  Em                E#7
   |--3--|  |--3--|  |--3--|  |--3--|
   E  E  E  E  E  E  E  E  E  E  E  E
|-15p12----------12-16p13----------13-|
|-------12----12----------15----15----|
|----------12----------------16-------|
|-------------------------------------|
|-------------------------------------|
|-------------------------------------|
|
|  Q        Q        Q        Q
|-------------------------------------|
|-------------------------------------|
|-------------------------------------|
|-------------------------------------|
|--7--------7--------8--------8-------|
|-------------------------------------|


                                        1.
  F#sus4                                F#
   |--3--|  |--3--|  |--3--|  |--3--|    |--3--|  |--3--|  |--3--|
   E  E  E  E  E  E  E  E  E  E  E  E    E  E  E  E  E  E  E  E  E  E E
|-19p14----------14-19p14----------19-|-18p14----------14-18p14-----------||
|-------14----14----------14----14----|-------14----14----------14-------o||
|----------16----------------16-------|----------15----------------15-----||
|-------------------------------------|-----------------------------------||
|-------------------------------------|----------------------------------o||
|-------------------------------------|-----------------------------------||
|
|  Q        Q        Q        Q          Q        Q        Q        Q
|-------------------------------------|-----------------------------------||
|-------------------------------------|----------------------------------o||
|-------------------------------------|-----------------------------------||
|-------------------------------------|-----------------------------------||
|--9--------9--------9--------9-------|----------------------------------o||
|-------------------------------------|--2--------2--------2--------2-----||


  2.
  F#
   |--3--|  |--3--|  |--3--|  |--3--|
   E  E  E  E  E  E  E  E  E  E  E  E
|-18p14----------14-18p14----------14-|
|-------14----14----------14----14----|
|----------15----------------15-------|
|-------------------------------------|
|-------------------------------------|
|-------------------------------------|
|
|  Q        Q        Q        Q
|-------------------------------------|
|-------------------------------------|
|-------------------------------------|
|-------------------------------------|
|-------------------------------------|
|--2--------2--------2--------2-------|


  F#sus4                                F#
                                                   ~~
   |--3--|  |--3--|  |--3--|  |--3--|    |--3---|      |--3--|  |--3--|
   E  E  E  E  E  E  E  E  E  E  E  E    E   E  E  Q   E  E  E  E  E  E
|-19p14----------14-19p14----------18-|-21p=18--------14-----------------||
|-------14----14----------14----14----|--------19--------17-15-14--------||
|----------16----------------16-------|-----------18--------------16-15--||
|-------------------------------------|----------------------------------||
|-------------------------------------|----------------------------------||
|-------------------------------------|----------------------------------||
|
|  W                                    +W
|-------------------------------------|----------------------------------||
|-------------------------------------|----------------------------------||
|-------------------------------------|----------------------------------||
|-------------------------------------|----------------------------------||
|--9----------------------------------|-(9)------------------------------||
|-------------------------------------|----------------------------------||


 Verse 3
  D/B            G/B                  A
  H..            E   +H..             E
|------------------|--------------------|
|-7--------------8-|-(8)--------------5-|
|-7--------------7-|-(7)--------------6-|
|-9--------------9-|-(9)--------------7-|
|------------------|--------------------|
|------------------|--------------------|
|
| PM-------------------------------------
| Q    E E E E E E    E   E E E E E E E
|------------------|--------------------|
|------------------|--------------------|
|------------------|--------------------|
|------------------|--------------------|
|------------------|--------------------|
|-7----7-7-7-7-7-7-|--7---7-7-7-7-7-7-7-|


                   D/B
  +H..             E   +W
|--------------------|----------------------|
|-(5)--------------7-|-(7)------------------|
|-(6)--------------7-|-(7)------------------|
|-(7)--------------9-|-(9)------------------|
|--------------------|----------------------|
|--------------------|----------------------|
|
|----------------------------------------|
|  E   E E E E E E E    E  E E  E E E  E E
|--------------------|----------------------|
|--------------------|----------------------|
|--------------------|----------------------|
|--------------------|-----9-7--------------|
|--------------------|---------10-9-7-------|
|--7---7-7-7-7-7-7-7-|--7-------------10-9--|


  D/B            G/B                     E5/B       F#5/C#
  +H       Q   E E   +W                  W           W
|----------7-------|-------------------|----------|-----------------|
|-(7)------7-----8-|-(8)---------------|----------|-----------------|
|-(7)------7-----7-|-(7)---------------|-9--------|-11--------------|
|-(9)------------9-|-(9)---------------|-9--------|-11--------------|
|------------------|-------------------|----------|-----------------|
|------------------|-------------------|----------|-----------------|
|
|  PM--------------------------------|                    PM-----|
|  Q   E E E E E E    E  E E E E E E E   W           H    E E  E E
|------------------|-------------------|----------|-----------------|
|------------------|-------------------|----------|-----------------|
|------------------|-------------------|----------|-----------------|
|------------------|-------------------|----------|-----------------|
|------------------|-------------------|----------|-------9-7-------|
|--7---7-7-7-7-7-7-|--7--7-7-7-7-7-7-7-|-0--------|--6--------10-9--|


  D/B            G/B                  A
  H..            E   +H..             E
|------------------|--------------------|
|-7--------------8-|-(8)--------------5-|
|-7--------------7-|-(7)--------------6-|
|-9--------------9-|-(9)--------------7-|
|------------------|--------------------|
|------------------|--------------------|
|
| PM-------------------------------------
| Q    E E E E E E    E   E E E E E E E
|------------------|--------------------|
|------------------|--------------------|
|------------------|--------------------|
|------------------|--------------------|
|------------------|--------------------|
|-7----7-7-7-7-7-7-|--7---7-7-7-7-7-7-7-|


                   D/B
  +H..             E   +W
|--------------------|----------------------|
|-(5)--------------7-|-(7)------------------|
|-(6)--------------7-|-(7)------------------|
|-(7)--------------9-|-(9)------------------|
|--------------------|----------------------|
|--------------------|----------------------|
|
|----------------------------------------|
|  E   E E E E E E E    E  E E  E E E  E E
|--------------------|----------------------|
|--------------------|----------------------|
|--------------------|----------------------|
|--------------------|-----9-7--------------|
|--------------------|---------10-9-7-------|
|--7---7-7-7-7-7-7-7-|--7-------------10-9--|


  D/B            G/B
  H..            E   +W
|------------------|-------------------|
|-7--------------8-|-(8)---------------|
|-7--------------7-|-(7)---------------|
|-9--------------9-|-(9)---------------|
|------------------|-------------------|
|------------------|-------------------|
|
| PM---------------------------------|
| Q    E E E E E E    E  E E E E E E E
|------------------|-------------------|
|------------------|-------------------|
|------------------|-------------------|
|------------------|-------------------|
|------------------|-------------------|
|-7----7-7-7-7-7-7-|--7--7-7-7-7-7-7-7-|


  N.C.
  ~~
           |--3--|    |--3--|  |--3--| |---3---|
  H.       E  E  E    E  E  E  E  E  E E  E    E  E E
|---------15p14p12-|-----------------------------------||
|------------------|-15p14p12S11-----------------------||
|------------------|-------------12p11p9---------------||
|------------------|---------------------12p==11p=9S8--||
|-7----------------|-----------------------------------||
|------------------|-----------------------------------||
|
|                                      PM-----------|
| W                   H                E    E     E E
|------------------|-----------------------------------||
|------------------|-----------------------------------||
|------------------|-----------------------------------||
|------------------|-----------------------------------||
|------------------|-------------------9----7----------||
|-0----------------|--6--------------------------10-9--||


 Chorus
           Am      G                      A5    F/A      D5/A  A5
  Gtrs I, II
  PM-----|   PM|     PM|    ~~~       PM|   PM|    PM|     PM|   PM----|
  Q  E E E E E E   E E E E +Q   E E   E E E E E  E E E   E E E E E E E E
|----------------|------------------|------------------|------------------|
|----------------|------------------|------------------|------------------|
|----------5-----|-4----------------|-----9-----10-----|-7-----9----------|
|----------7-----|-5-----7-(7)--5h7-|-----7------7-----|-7-----7----------|
|-0--0-0-0---0-0-|---0-0------------|-0-0---0-0----0-0-|---0-0---0-0-0-0--|
|----------------|------------------|------------------|------------------|


      A5    Am      G                  Dm/A C/G             G
  PM|   PM|   PM|     PM|    ~~~ PM|
  E E E E E E E E   E E E E +Q   E E   Q.   E +H       Q.   Q.   Q
|-----------------|------------------|---------------|---------------|
|-----------------|------------------|-6----5-(5)----|-5----3----3---|
|-----9-----5-----|-4----------------|-7----5-(5)----|-5----4----4---|
|-----7-----7-----|-5-----7-(7)------|-7----5-(5)----|-5----5----5---|
|-0-0---0-0---0-0-|---0-0--------0-0-|---------------|---------------|
|-----------------|------------------|---------------|---------------|


     A5    Am      G                      A5    F/A      Bm    A5
       PM|   PM|     PM|              PM|   PM|    PM|     PM|   PM----|
  Q  E E E E E E   E E E E +Q   E E   E E E E E  E E E   E E E E E E E E
|----------------|------------------|------------------|------------------|
|----------------|------------------|------------------|------------------|
|----9-----5-----|-4----------------|-----9-----10-----|-7-----9----------|
|----7-----7-----|-5-----7-(7)--5h7-|-----7------7-----|-9-----7----------|
|-0----0-0---0-0-|---0-0------------|-0-0---0-0----0-0-|---0-0---0-0-0-0--|
|----------------|------------------|------------------|------------------|


      A5    Am      G                Dm/A C/G             G
  PM|   PM|   PM|     PM|    ~~~
  E E E E E E E E   E E E E +H       Q.   E +H       Q.   Q.   Q
|-----------------|----------------|---------------|---------------|
|-----------------|----------------|-6----5-(5)----|-5----3----3---|
|-----9-----5-----|-4--------------|-7----5-(5)----|-5----4----4---|
|-----7-----7-----|-5-----7-(7)----|-7----5-(5)----|-5----5----5---|
|-0-0---0-0---0-0-|---0-0----------|---------------|---------------|
|-----------------|----------------|---------------|---------------|


  Dm/A C/G        C/G  G          Dm/A C/G        C/G  G
  Q.   E +H       Q.   E +H       Q.   E +H       Q.   E +H
|---------------|---------------|---------------|---------------||
|-6----5-(5)----|-5----3-(3)----|-6----5-(5)----|-5----3-(3)----||
|-7----5-(5)----|-5----4-(4)----|-7----5-(5)----|-5----4-(4)----||
|-7----5-(5)----|-5----5-(5)----|-7----5-(5)----|-5----5-(5)----||
|---------------|---------------|---------------|---------------||
|---------------|---------------|---------------|---------------||


 Outro
  A5
             TP
  W          W          W          +W
|----------|----------|----------|--------|
|----------|----------|----------|--------|
|-2--------|-2--------|----------|--------|
|-2--------|-2--------|----------|--------|
|-0--------|-0--------|-0--------|-(0)----|
|----------|----------|----------|--------|


  F5/C                      G/D
   W           +W            W           +W
|-----------|-------------|-----------|---------|
|-----------|-------------|-12--------|-(12)----|
|-10--------|-(10)--------|-12--------|-(12)----|
|-10--------|-(10)--------|-12--------|-(12)----|
|-----------|-------------|-----------|---------|
|-----------|-------------|-----------|---------|


  G                                                             A5
                \1/           \1                 /
   W           +W             Q    +Q    Q  Q    H.      +Q     H    H
|-----------|--------------|------------17-----|--------------|-----------*|
|-15--------|-(15)---------|-15---(15)---------|--------------|-----------*|
|-16--------|--------------|-------------------|--------------|-2---------*|
|-17--------|--------------|-------------------|--------------|-2---------*|
|-----------|--------------|-------------------|--------------|-0---------*|
|-----------|--------------|-------------------|-0-------(0)--|-----------*|



Duration Legend
---------------
W - whole; H - half; Q - quarter; E - 8th; S - 16th; T - 32nd; X - 64th; a - acciaccatura
+ - note tied to previous; . - note dotted; .. - note double dotted
Uncapitalized letters represent notes that are staccato (1/2 duration)
Irregular groupings are notated above the duration line
Duration letters will always appear directly above the note/fret number it represents the
duration for.  Duration letters with no fret number below them represent rests.  Multi-
bar rests are notated in the form Wxn, where n is the number of bars to rest for.  Low
melody durations appear below the staff

Tablature Legend
----------------
 h   - hammer-on
 p   - pull-off
 b   - bend
 pb  - pre-bend
 r   - bend release (if no number after the r, then release immediately)
 /\  - slide into or out of (from/to "nowhere")
 s   - legato slide
 S   - shift slide
 - natural harmonic
[n]  - artificial harmonic
n(n) - tapped harmonic
 ~   - vibrato
 tr  - trill
 T   - tap
 TP  - trem. picking
 PM  - palm muting
\n/  - tremolo bar dip; n = amount to dip
 \n  - tremolo bar down
 n/  - tremolo bar up
/n\  - tremolo bar inverted dip
 =   - hold bend; also acts as connecting device for hammers/pulls
 <> - volume swell (louder/softer)
 x   - on rhythm slash represents muted slash
 o   - on rhythm slash represents single note slash

Misc Legend
-----------
 |  - bar
||  - double bar
||o - repeat start
o|| - repeat end
*|  - double bar (ending)
 :  - bar (freetime)
 $  - Segno
 &  - Coda
Tempo markers -  = BPM(8/16=s8/s16), where s8 = swing 8ths, s16 = swing 16ths

Related for Demon Driver tab