Song name
# A B C D E F G H I J K L M N O P Q R S T U V W X Y Z

Yodelice - Wake Me Up tab

Artist: Yodelice
Song: Wake me up
Album: Cardioid (2010)

Capo 3rd Fret
h = hammer on

The Riff: (While the guitarist is doing the riff, the bass is plucking the low E string 
in time with the riff)

e|---------------------------------------------------------------0----------|
B|--------------------------------------------------------------------------|
G|--4--4--2--0-----------------0--2--2--2--0----------------0--4---4--2--0--|
D|--------------2--0--2--0--2h---------------2--0--2--0--2h-----------------|
A|--------------------------------------------------------------------------|
E|--------------------------------------------------------------------------|

e|----------------------------------------|
B|----------------------------------------|
G|-----------------0--2--2--2--0----------|
D|--2--0--2--0--2h---------------2--0--2--|
A|----------------------------------------|
E|----------------------------------------|

The Chords:

E C A (E for the verse and E C A for the chorus)

The Verse:

While playing the verse, the bass is plucking the low E string.

The Chorus:

        C
Wake me up
        A
Wake me up
        E
Wake me up
Tap to rate this tab
 
# A B C D E F G H I J K L M N O P Q R S T U V W X Y Z