Song name
# A B C D E F G H I J K L M N O P Q R S T U V W X Y Z

Yoko Kanno - Voices tab

Voices - Yoko Kanno (Macross Plus)

Intro

------------------------------------------------------------------------------------|
------------------------------------------------------------------------------------|
---------------9---8----------------------------------------------------------------|
------11--11------------9---6---4---6---7---h9------------6-----------6-------------|
---9----------------------------------------------9---7-------9---7-------9---------|
--------------------------------------------------------------------------------9---|


------------------------------------------------------------------------------------|
------------------------------------------------------------------------------------|
---------------9---8----------------------------------------------------------------|
------11--11------------9---6---4---6---7---h9------------6-----------6-------------|
---9----------------------------------------------9---7-------9---7-------9---------|
------------------------------------------------------------------------------------|

Verse:
------------------------------------------------------------------------------------|
------------------------------------------------------------------------------------|
---------------9---8----------------------------------------------------------------|
------11--11------------9---6---4---6---7---h9------------6-----------6-------------|
---9----------------------------------------------9---7-------9---7-------9---------|
--------------------------------------------------------------------------------9---|
Verse before second type verse:

------------------------------------------------------------------------------------|
------------------------------------------------------------------------------------|
---------------9---8----------------------------------------------------------------|
------11--11------------9---6---4---6---7---h9------------6-----------6-------------|
---9----------------------------------------------9---7-------9---7-------9---9-----|
------------------------------------------------------------------------------------|

Second type verse
	(Boxed Note Optional)
--------------------------------------------------------------------------------------|
--------------------------------------------------------------------------------------|
-----------------------9--11---9------------------------------------------------------|
---7---9--11---9--11---------------7-------7--11-----7-------7--11---6----------------|
---------------------------------------9-----------------9---------------9---[7]------|
--------------------------------------------------------------------------------------|

----------------------------------------------------------------------------|
----------------------------------------------------------------------------|
------------------------------11--------------------------------------------|
-----------7---6-------6--11------11-----9--11--13--11---9---6--11--11------|
---7---9-----------9--------------------------------------------------------|
----------------------------------------------------------------------------|
Tap to rate this tab
 
# A B C D E F G H I J K L M N O P Q R S T U V W X Y Z