Song name
# A B C D E F G H I J K L M N O P Q R S T U V W X Y Z

Yoko Kanno - Lithium Flower tab

=====================
Lithium Flower(Intro)
=====================

(Update as of November 11th, 2008)
A fellow UltimateGuitar member noted some small issues with my tab. I decided 
to start mostly from scratch and tab out the full intro. Changes include a 
second guitar and the nuances that I didn't include the first time.
Enjoy!
SIDE NOTE: If you would like a GuitarPro version that includes drums and more 
accurate notation, send me a message.


Guitar 1                                                            
e||------------------------|--------------------------|------------------------|
B||------------------------|--------------------------|------------------------|
G||------------6-----6-----|-----------5--6--5--------|------------6-----6-----|
D||--8---------6-----6--6--|--------6-----------8--6--|--8---------6-----6--6--|
A||--8------------4--4--6--|-----6--------------------|--8------------4--4--6--|
E||-------6-------------4--|--------------------------|-------6-------------4--|
                                                         
|--------------------------|------------------------|--------------------------|
|--------------------------|------------------------|--------------------------|
|-----------5--6--5--------|------------6-----6-----|-----------5--6--5--------|
|--------6-----------8--6--|--8---------6-----6--6--|--------6-----------8--6--|
|-----6--------------------|--8------------4--4--6--|-----6--------------------|
|--------------------------|-------6-------------4--|--------------------------|
                                             
|------------------------|--------------------------||
|------------------------|--------------------------||
|------------6-----6-----|-----------5--6--5--------||
|--8---------6-----6--6--|--------6-----------8--6--||
|--8------------4--4--6--|-----6--------------------||
|-------6-------------4--|--------------------------||


Guitar 2    
e||---------------------|--------------------|---------------------|
B||---------------------|--------------------|---------------------|
G||-----------6---------|--------------------|-----------6---------|
D||--8--------6------6--|-----------4--------|--8--------6------6--|
A||--8--------4------6--|-----------4--------|--8--------4------6--|
E||--6---------------4--|-----------2--------|--6---------------4--|

|--------------------|---------------------|--------------------|
|--------------------|---------------------|--------------------|
|--------------------|-----------6---------|--------------------|
|-----------4--------|--8--------6------6--|-----------4--------|
|-----------4--------|--8--------4------6--|-----------4--------|
|-----------2--------|--6---------------4--|-----------2--------|

|---------------------|--------------------||
|---------------------|--------------------||
|-----------6---------|--------------------||
|--8--------6------6--|-----------4--------||
|--8--------4------6--|-----------4--------||
|--6---------------4--|-----------2--------||
Tap to rate this tab
 
# A B C D E F G H I J K L M N O P Q R S T U V W X Y Z