Guitaretab - guitar tabs
Song name
# A B C D E F G H I J K L M N O P Q R S T U V W X Y Z

You Am I - Hourly Daily tab

-------------------------------------------------------------------------------
			     Hourly Daily (Album) Ė You Am I
-------------------------------------------------------------------------------
Tabbed by: Tyler J (actually tabbed by tabbers mentioned)
Email: full_metal_orange AT hotmail DOT com

HOURLY, DAILY
by Tim Rogers/You Am I

  1.  Hourly Daily
  2.  Good Mornin'
  3.  Mr. Milk
  4.  Soldiers
  5.  Tuesday
  6.  Trike
  7.  If We Can't Get It Together
  8.  Opportunities
  9.  Flag Fall $1.80
  10. Wally Raffles
  11. Heavy Comfort
  12. Dead Letter Chorus
  13. Baby Clothes
  14. Please Don't Ak Me To Smile
  15. Moon Shines On Trubble
  16. Who Takes Who Home
  17. Forget It Sister

  18. Boulder Fair
  19. Six
  20. I'll Make You Happy
  21. Who Turned Out The Lights
  22. I Can Hear the Grass Grow

%%%%%%%%%%%%%%%%%%%%%%%%%%%%%%%%%%%%%%%%%%%%%%%%%%%%%%%%%%%%%%%%%%%%%%%%%%%%%%%%
HOURLY DAILY

Transcribed by David Lane
intsy help from Danny Yau

Cmaj7    x32000
F(5bth)  13320x
C4       x33010

Capo 2

INTRO
e|---------------------------------|
B|-1-1-1-1-1-1-0-0-----------------|
G|-2-2-1-1-0-0-2-2-2-2-2-2-2-2-2-2-|
D|-2-2-2-2-2-2-4-4-3-3-3-3-3-3-3-3-|
A|-0-0-0-0-0-0-0-0-3-3-3-3-3-3-3-3-|
E|-----------------1-1-1-1-1-1-1-1-|

(x2)

LINK: C / C

      E           E7                 F            C
Don't let there be    something sour in my coffee
            E              E7               F             C
There's fourteen year olds     screaming get out of my country
        E            E7  F               C
I won't let him him rise just to say goodbye
Cmaj7    C
Hour---ly
F(b5th) F
Dai-----ly

(REPEAT INTRO + LINK)

The August cold brings something bad in his sock drawer
There's too much hate covering up those once white walls
I don't want my boy think that I'm only to avoid
Tread safe hourly, daily

BRIDGE

e|---------------------------------|
B|---------------------------------|
G|-------------0-------------------|
D|-----3-----2---0---0-4-0-----2---|
A|---3---3---------2---------3---3-|
E|-1-------0-----------------------|

C C4/C

(x4)

Fm (ring out 2 bars)

CHORUS

e|---------------------------------|
B|-1-1-1-1-1-1-0-0-----------------|
G|-2-2-1-1-0-0-2-2-2-2-2-2-2-2-2-2-|
D|-2-2-2-2-2-2-4-4-3-3-3-3-3-3-3-3-|
A|-0-0-0-0-0-0-0-0-3-3-3-3-3-3-3-3-|
E|-----------------1-1-1-1-1-1-1-1-|
He's the splitting image and the oldest of two.

e|---------------------------------|
B|-1-1-1-1-1-1-0-0-----------------|
G|-2-2-1-1-0-0-2-2-2-2-2-2-2-2-2-2-|
D|-2-2-2-2-2-2-4-4-3-3-3-3-3-3-3-3-|
A|-0-0-0-0-0-0-0-0-3-3-3-3-3-3-3-3-|
E|-----------------1-1-1-1-1-1-1-1-|
Now what kind of mess have you gone and gotten yourself into?

C C4/C

Make a morning pledge    to the hum of the city quiet
Pray the daybreak sun    can fill up the holes of a sleepless night
Bring one good face into this house today
Hour---ly
Dai-----ly

(REPEAT BRIDGE)

(REPEAT CHORUS x 2)

End on C

%%%%%%%%%%%%%%%%%%%%%%%%%%%%%%%%%%%%%%%%%%%%%%%%%%%%%%%%%%%%%%%%%%%%%%%%%%%%%%%%
GOOD MORNIN'

Transcribed by David Lane

Capo 1st fret

CHORDS USED
A F#7 E7 F7 G Asus2 Bm/F# C#m/G# Dm Am C E/G#
X--2--0--1--3---0-----2-----4----1--0--0--4--|
2--5--0--4--3---0-----3-----5----3--1--1--5--|
2--3--1--2--0---2-----4-----6----2--2--0--4--|
2--2--0--1--0---2-----4-----6----0--2--2--X--|
0--4--2--3--2---0-----2-----4-------0--3--X--|
---2--0--1--3---------2-----4-------------4--|
VERSE 1

       A                       F#7                 E7                          F7
If you tuned in correctly this morning, kissed his cheek get your tea and your toast in
        A                          F#7       E7                              F7                  G
Got the greatest of the latest top thirty to clear your mind of all dreams unfaithful or dirty
A                                F#7       E7                             F7
Would you like to hear with your soldiers? Sponsor needs to know what you told us
      A                              F#7                E7                        F7         G
Got a course written for us straight from the file Just check your brain into the a.m. dial

CHORUS
Asus2                      Bm/F#                C#m/G#                         Dm
Waking up is easy when you got a voice you know rattling up the ratings on the breakfast show.
Asus2                      Bm/F#                C#m/G#
Waking up is easy when you got a voice you love telling you what's out there
   Dm                   Dm                   Dm     F   G
Is anyone out there? Is anyone out there? Is anyone out there?

VERSE 2
       A                               F#7           E7                          F7
If you don't like the nest that you've made we got a competition running you can leave today
          A                            F#7            E7                    F7                G
Pack your bags, clean your ears of the city, we got a place where even your car looks pretty

(REPEAT CHORUS)

BRIDGE
Am                                    C
    Good morning ladies do you need a man?
Dm                                     G    E/G#
    Put your trust in our thirties and over plan

OUTRO RIFF

------------------------0-0-3-3-|
2-2-2-2-2-2-2-2-2-2-2-2-1-1-3-3-|
2-2-2-2-2-2-2-2-2-2-2-2-2-2-0-0-|
2-2-2-2-2-2-2-2-2-2-2-2-3-3-0-0-|
0-0-0---0-0-0---0-0-0---3-3-2-2-|
------3-------3-------3-1-1-3-3-|

(x2)

(REPEAT CHORUS)

(REPEAT OUTRO RIFF 4 TIMES WITH BAND, 2 TIMES SOLO, 6 TIMES BAND BACK IN)

End on A

%%%%%%%%%%%%%%%%%%%%%%%%%%%%%%%%%%%%%%%%%%%%%%%%%%%%%%%%%%%%%%%%%%%%%%%%%%%%%%%%
MR MILK

Transcribed by Paul Stipack (paul.stipack@hunterlink.net.au),
	       Tim Mitchell (jma@acslink.net.au) &
	       Matt Jones(rdj@alphalink.com.au)

After watching the live Recovery version of this song, I think
I've got it pretty right. I'll just tab out the lead riff and the
chords, hopefully that will be enough. Just listen to the recording
to get the strumming right.

CAPO ON 2ND FRET! (tab relative to capo)

LEAD RIFF:
E-|---------------------|
B-|-(3)--------------0--|
G-|--2------2--4/6-6----|
D-|-(0)--4--------------|(play the notes in brackets for the
A-|---------------------| intro part)
E-|---------------------|

VERSE CHORDS:
    A  A/G   E  D
E-|----------------|
B-|----0-----0--3--|
G-|-2--2-----1--2--|
D-|-2--2-----2--0--|
A-|-0--------2--0--|
E-|----3-----0-----|

CHORUS CHORDS:
    A  A/G#  A/G  Dm->Edim
E-|---------------1----3----|
B-|-----0----0----3----2----|
G-|-2---2----2----2----3----|
D-|-2---2----2----0----2----|
A-|-0-------------0---------|
E-|-----4----3--------------|

BRIDGE CHORDS:
    C#m  D  G  E
E-|--4------3--0--|
B-|--5---3--3--0--|
G-|--6---2--0--1--|
D-|--6---0--0--2--|
A-|--4---0--2--2--|
E-|---------3--0--|

OUTRO CHORDS:
    A  A/G  A/F#  G5  F#5
E-|-----------------------|
B-|----0----0-------------|
G-|-2--2----2-------------|
D-|-2--2----2-----5---4---|(the F#5 is a quick chord with only
A-|-0-------------5---4---| one or two quick strums before the
E-|----3----2-----3---2---| change back to the A chord)

%%%%%%%%%%%%%%%%%%%%%%%%%%%%%%%%%%%%%%%%%%%%%%%%%%%%%%%%%%%%%%%%%%%%%%%%%%%%%%%%
SOLDIERS

Transcribed by Glenn Christensen (JrChrist@ozemail.com.au)
               Danny Yau (danny@zip.com.au)

capo 4th fret.

Intro/("you woke me up..." bit)

     A    A/G#   D     E
E|-----0-----0--(2)--------|
B|-----2-----2---3-------0-|
G|---2-----2-------2-----1-|
D|-2-----------0-------2---|
A|-0-----------------2-----|
E|-------4-----------------|

Verse

E|-0-0-0-0-2-2-0-0-|
B|-2-2-2-2-3-3-0-0-|
G|-2-2-2-2-2-2-1-1-|
D|-2-2-2-2-0-0-2-2-|
A|-0-0-0-0-----2-2-|
E|-----4-4-----0-0-|

pre-chorus chords (the senior transit...)

E|-0--0--0--2-|
B|-2--2--2--2-|
G|-2--2--2--3-|
D|-2--2--2--4-|
A|-0--0--0--4-|
E|----4--3--2-|

chorus chords (alright, right...)

E|-0--0-|
B|-2--2-|
G|-2--2-| back into verse riff
D|-2--2-|
A|-0--0-|
E|----3-|

Bridge chords

E|-0--2--2--2/5--5-|
B|-2--2--3--3/6--6-|
G|-2--3--4--4/7--7-|
D|-2--4--4--4/7--7-|
A|-0--4--2--2/5--5-|
E|----2------------|

last bar

E|-0-0-0-0-2-2-1---0-|
B|-2-2-2-2-3-3-0---2-|
G|-2-2-2-2-2-2-2---2-|
D|-2-2-2-2-0-0-0---2-|
A|-0-0-0-0---------0-|
E|-----4-4-----------|

%%%%%%%%%%%%%%%%%%%%%%%%%%%%%%%%%%%%%%%%%%%%%%%%%%%%%%%%%%%%%%%%%%%%%%%%%%%%%%%%
TUESDAY

Transcribed by David Lane

CHORDS USED
E	022100		C#7sus2		x46444
C#m	x46654		Ab		466544
C#msus2	x46644		Bsus4		799800
Csus2	x35533		E5		x799xx
G	3x0033		Ebaug		x698xx
G/F#	2x0033		F#sus4		x9911xx
Bm	x24432		B		x244xx
Bmsus2	x24422		F#(add B)	244300
C#7	x46464		G6		355400


VERSE 1
E                    C#m
Saw the sun come up again
            C#msus2 - C#m   Csus2                                  G    G/F#
Last week's papers and a    pack of darts that got me through 'til ten
    Bm                 Bmsus2  Bm
The ten fifteen's five minutes late
  C#7                C#7sus2 - C#7     Ab      Bsus4
I really should just get out more these days
E                            C#m
Next door is coughing up his lungs
     C#msus2 - C#m  Csus2                          G    G/F#
Two am I'm sure she said she's gonna get herself a gun
Bm                    Bmsus2   Bm
   I blacked out from three to five
C#7                    C#7sus2 - C#7 - Ab	   Bsus4
You should hear what's going on outside

VERSE 2
E                         C#m
As the morning bread goes hard
       C#msus2 - C#m       Csus2                         G      G/F#
On the corner shop they're waiting just for rush hour to start
        Bm                Bmsus2   Bm
And I'm wondering why his kids are late
  C#7                C#sus2  C#7      Ab      E    Ab    Bsus4
I really should just get out more these days.

LINK
A-9-9-9-9-9-9-9-9-9-7-7-7-7-7-7-7-|
E-0-0-0-0-0-0-0-0-0-0-0-0-0-0-0-0-|

TRUMPET SOLO (verse chords)
  E		C#m	   Csus2	   G	    G/F#	 Bm
e---------------9p7-9---8-8h9----7-5-5h7-5--10p9-10--10p9-10-7-------|
b-9-9h10-12-9--------9-------8-10---8--------------------------7-10--|
g-------------9-------9----------------------------------------------|
d--------------------------------------------------------------------|
a--------------------------------------------------------------------|
e--------------------------------------------------------------------|

   C#7   			 Ab	       E		Ab	     Bsus4
e--------------9-9p7---9-8--8h6----6-7-7p6----6-8-8p6----6-7---------|
b--9p7---7-9-7-------9---------9-9--------9-9--------9-9-------------|
g------9------------------------9----------9----------9--------------|
d--------------------------------------------------------------------|
a--------------------------------------------------------------------|
e--------------------------------------------------------------------|

BRIDGE
E5        Ebaug  F#sus4  E5               Ebaug     F#sus4  E5
Days, and each   one     shows there's so much I'll never   know
           Eb  E5  Eb  C#m   B   C#m  B   F#(add B) G6
If I don't e---ver get, if I ne--ver  get hopeful,  hopeful

LINK 2
0-0-0--0-0-0--0-0-0--0-0-0--0-0-0--0-0-0--0--0--0---0--0--0--|
0-0-0--0-0-0--0-0-0--0-0-0--0-0-0--0-0-0--0--0--0---0--0--0--|
5-5-5--6-6-6--7-7-7--8-8-8--9-9-9--101010-11-11-11--12-12-12-|
6-6-6--7-7-7--8-8-8--9-9-9--101010-111111-12-12-12--13-13-13-|
6-6-6--7-7-7--8-8-8--9-9-9--101010-111111-12-12-12--13-13-13-|
4-4-4--5-5-5--6-6-6--7-7-7--8-8-8--9-9-9--10-10-10--11-11-11-|

VERSE 3
E           		     C#m
And old Ryan's still his rust
    C#msus2 - C#m     Csus2                    G    G/F#
and Tuesday comes and goes like any late night bus
        Bm            Bmsus2  Bm
I could do a lot more with my time
    C#7                    C#7sus2 - C#7  Ab	  E
But you should hear what's going on    outside

OUTRO CHORDS

Ab     E  (Repeat to fade)

%%%%%%%%%%%%%%%%%%%%%%%%%%%%%%%%%%%%%%%%%%%%%%%%%%%%%%%%%%%%%%%%%%%%%%%%%%%%%%%%
TRIKE

Transcribed by Matt Estela (mestela@progsoc.uts.edu.au) &
 	       Paul Stipack (paul.stipack@hunterlink.net.au)

Gotta love any song with hand claps in it.

main riff:
E|-3--3-3-3-3-3-3-3-|-3-3-3-3-3-3-3-|-3-3-3-3-3-3-|-0--0-0----------|
B|-3--3-3-3-3-3-3-3-|-3-3-3-3-3-3-3-|-3-3-3-3-3-3-|-0--0-0--1--1-1--|
G|-0--0-0-0-0-0-0-0-|-0-0-0-0-0-0-0-|-0-0-0-0-0-0-|-0--0-0--2--2-2--|
D|-0--0-0-0-0-0-0-0-|-0-0-0-0-0-0-0-|-0-0-0-0-0-0-|-2--2-2--3--3-3--|
A|-x--x-x-x-x-x-x-x-|-x-x-x-x-x-x-x-|-x-x-x-x-x-x-|-2--2-2--3--3-3--|
E|-3--3-3-1-3-3-1-3-|-3-3-1-3-3-1-3-|-3-3-1-3-3-1-|-0--0-0--1--1-1--|
                                                            T  T T

pre-chorus (where it's just guitar, drums and vocals)
E|----------------------|-0--0-0----------|
B|----------------------|-0--0-0|-1--1-1--|
G|----------------------|-0--0-0--2--2-2--|
D|------------------(x3)|-2--2-2--3--3-3--|
A|---------------2------|-2--2-2--3--3-3--|
E|-3----3--1--3-----1---|-0--0-0--1--1-1--|
                                T  T T

chorus
    C   B7    E  D  A7/C# Am D    G
E|--0---2--|-----0--0--|--0--2--|-3--|
B|--1---4--|-----3--2--|--1--3--|-3--|
G|--0---2--|--4--2--0--|--2--2--|-0--|
D|--2---4--|--2--0--2--|--2--0--|-0--|
A|--3---2--|--------4--|--0-----|-x--|
E|---------|-----------|--------|-3--|

2nd & 3rd Chorus endings:
E|-3--3-3-0--|
B|-3--3-3-0--|
G|-0--0-0-0--|
D|-0--0-0-2--|(then back to the Am D G progression)
A|-x--x-x-2--|
E|-3--3-2-0--|

hand-clap part
  PM..................................
    G             F    Em      F
E|--3-3-3-3-3-3-3-1--|-0-0-0-0-1-1-1-1---|
B|--3-3-3-3-3-3-3-1--|-0-0-0-0-1-1-1-1---|
G|.-4-4-4-4-4-4-4-2--|-0-0-0-0-2-2-2-2-.-|
D|.-5-5-5-5-5-5-5-3--|-2-2-2-2-3-3-3-3-.-|
A|--5-5-5-5-5-5-5-3--|-2-2-2-2-3-3-3-3---|
E|--3-3-3-3-3-3-3-1--|-0-0-0-0-1-1-1-1---|

%%%%%%%%%%%%%%%%%%%%%%%%%%%%%%%%%%%%%%%%%%%%%%%%%%%%%%%%%%%%%%%%%%%%%%%%%%%%%%%%
IF WE CAN'T GET IT TOGETHER

Transcribed by David Lane

Those weird Em chords

Em    Em(maj7)   Em7   Em(add6)
 0-------0--------0-------0-|
 0-------0--------0-------0-|
 0-------0--------0-------0-|
 2-------1--------0-------2-|
 2-------2--------2-------4-|
 0-------0--------0-------0-|

Capo 1st fret

    G                     Bm                            G
To get up the bond for an inner west flat he'd work for anybody if he
       Bm
wasn't working for her dad.
     Am                  Esus4   E               Am
She' practicing saying I do or I will 'cause she don't know how to tell
               Esus4     E
him that she's going off the pill.
    G                                   Bm
Her curtains are for certain that he'll talk about her ass
        G                          Bm
but she clings to his photo like a piece of broken glass.
   Am                    Esus4   E
We can't get it together today.
      Am                             Esus4            E
She's looking for his heart while he stares the other way.
     F
He's dad is a nut, he's ex-girl is a slut.
    F
But he'll be yours forever if you just get it together.
      C
If we can't get it together, if we can't get it together,
      Cm
is it ever gonna be just you and me?
        G                     Bm
So they met on Tuesday at the town hall steps to get an
G                        Bm
eight by ten photo and a wedding date set.
   Am                       Esus4 E               Am
We might as well do it next week     'cause we've met everybody that
      Esus4      E
we're ever gonna meet.
     F
He's dad is a nut, he's ex-girl is a slut
    F
But he'll be yours forever if you just get it together.

      C
If we can't get it together, if we can't get it together,
       Cm                             G
 is it ever gonna Be just you and me?
Em              Em(maj7)
Four seventy to Circular Quay.
   Em7                           Em(add6)
A present in your pocket for the TAB
      Am7
If we can't get it together, if we can't get it together
      D
is it ever gonna be just you and me?

SOLO (relative to capo)

             H
---------------------------------------------|
-----------------------------0----0---0----0-|
--------------------0-----0--4----4---2----0-|
--------------0--2-----2---------------------|
----------0-2--------------------------------|
-3-------------------------------------------|

(x2)

0--0---0--0--0---0---0--0---0-|
5--5---5--3--0---7---7--8---8-|
------------------------------|
------------------------------|
------------------------------|
------------------------------|

(x2)

         H                      BU               BD
---------------------------------------------------------------|
-------------------------------------15------------------------|
------------12--14--12---14----(16)-------(16)---14---12-------|
14---12-14----------------------------------------------14-----|
---------------------------------------------------------------|
---------------------------------------------------------------|

(x3)

---8---------8---------10--11--10--8----3-|
------8---------8-----------------------3-|
8--------8--------8---------------------0-|
----------------------------------------0-|
----------------------------------------2-|
----------------------------------------3-|

Em                     Em(maj7)
Would you settle for a mobile home a
Em7                     Em(add6)
good record store and a public phone
      Am7
If we can't get it together, if we can't get it together

D  D  D  D     D

%%%%%%%%%%%%%%%%%%%%%%%%%%%%%%%%%%%%%%%%%%%%%%%%%%%%%%%%%%%%%%%%%%%%%%%%%%%%%%%%
OPPORTUNITIES

Transcribed by David Lane

INTRO

1 2 3 4 1 2 3 4

A       G   Bm

(x4)

VERSE 1
            A      G           F#m                E
He made the news today for the first time on page three.
B7                         D7
Left the local supermarket job in sale and figures.
        A          G       F#m            E
Makes a treat each week, tomorrow sits at home.
B7                                D7
He'd be such a lovely boy if he'd only leave the girls alone.

C#m            F#m           Bm      C#m  Dm
     You could see it in his face    each time he ran away.

CHORUS

         A     C#m     Bm        F       A  / E
It was a ba-ba-ba-ba-ba big opportunity.

VERSE 2
         A    G        F#m             E
Bathroom porcelain and handles made of brass.
B7                           D7
Took the proper grooming and full year language class.
             A        G      F#m                   E
They're sure he's the guy to snatch them from this scene
    B7                                         D7
and take them to some place they're sure their mother's never been.

C#m           F#m           Bm     C#m      Dm
    You could see it in his face     as the colour drained away.

CHORUS

         A     C#m      Bm       F
It was a ba-ba-ba-ba-ba big opportunity.
  A     C#m      Bm       F
A ba-ba-ba-ba-ba big opportunity.
  A     C#m      Bm       F         E
A ba-ba-ba-ba-ba big opportunity.

BRIDGE

F#m                        C#/F
    Cold evenings create a living room dance.
      F#m                          C#/F
Spend late nights revolving around one lost chance.

   D
Oh yeah.

REPEAT INTRO CHORDS

SOLO

     A   G  F#m   E    B7      D7

     S                   S
------------------------------------------|
2-3-35-3-2--232---------0--0-0-0-0-0------|
----------------2-------24-4-4-4-5-4-2----|
------------------2---------------------0-|
------------------------------------------|
------------------------------------------|


A   G   F#m E     B7           Dm

                   S
-----------------------------------------|
532-0---320--------------2-3-5-6---------|
---2-202---2---------2-4-----------------|
------------2-----24---------------------|
-----------------------------------------|
------------0----------------------------|


              A        G              F#m      E
They're gonna jump the train it's the last one today.
B7                             D7
Join us in the back row of the ones that got away.
       A     G        F#m               E
Join a big parade, it works for you and me.
B7                                     D7
And you'll add a thrill because you'll hear it on TV.

C#m          F#m            Bm   C#m     Dm
    Throw it up against the wall just to see how far it falls.

CHORUS

              A     C#m      Bm       F
'cause it's a ba-ba-ba-ba-ba big opportunity.
  A     C#m      Bm       F
A ba-ba-ba-ba-ba big opportunity.
  A     C#m      Bm       F        E / A
A ba-ba-ba-ba-ba big opportunity.

%%%%%%%%%%%%%%%%%%%%%%%%%%%%%%%%%%%%%%%%%%%%%%%%%%%%%%%%%%%%%%%%%%%%%%%%%%%%%%%%
FLAG FALL $1.80

Transcribed by Shane Murphy
Capo 3

INTRO
e--------------------------------------------------------------------|
b--2--2-2---------2--2-2---------2--2-2---------2-------8--8\--------|
g--2--2-2---------2--2-2---------2--2-2---------2--------------------|
d--2--2-2-----2---2--2-2-----2---2--2-2-----2---2--------------------|
a--0--0-0--0--x---0--0-0--0--x---0--0-0--0--x---0--------------------|
e----------0--3-----------0--3-----------0--3------------------------|

Rhy. Fig. 1
e--------------------|
b--2--2-2------------|
g--2--2-2------------|
d--2--2-2------2-----|
a--0--0-0---0--x-----|
e-----------0--3-----|

(with Rhy. Fig. 1  x 8)
If I'm so popular out on the highway (highway)
Then what is everybody waving at me (at me)

CHORUS
E	      D
See if they even knew ya
B7		      D
Would you find out it a little peculiar
F#	   E
Six pack cheaper domestic
      D		         C
To keep the council's roadworks protected

REPEAT INTRO

(with Rhy. Fig. 1  x8)
Mopping up the puke from the high school kids getting soakin' (soakin')
Lookin at stickers on the dashboard preventing me from smokin' (smokin')

CHORUS 2
E		   D
We ain't going west of the city
	   B7						  D
But I'll take you to the station cause your girlfriend's pretty
F#	   E
Six pack cheaper domestic
   D			    C
To keep the council's roadworks protected

Rhy. Fig. 1  x2
 BRIDGE
B					 E
Now love can get you where you want
B	         B/A	       G#m7
Start out one-eighty and the extra's
G - Bb - B
But for that
			     E
Late night AM talkback live
B		 B/A		     G#m7
Don't use my mirror for your hairdo
    G    Bb    B
If you don't mind

(with Rhy. Fig. 1  x8)
e--------------------------------------------------------------------|
b---5--5--3--3--1-----------1--------5--5--3--3--1-----------1-------|
g---2--2--2--2--2--2--0--2--2--2-----2--2--2--2--2--2--0--2--2--2----|
d--------------------------------------------------------------------|
a--------------------------------------------------------------------|
e--------------------------------------------------------------------|

e--------------------------------------------------------------------|
b---5--5--5-5---3--3-1-3-1------3--3--1---4--4-4--3--1---------------|
g---4--4--4-4---2--2-2-2-2---0--0--0--0---3--3-3--2--2---------------|
d--------------------------------------------------------------------|
a--------------------------------------------------------------------|
e--------------------------------------------------------------------|

e--------------------------------------------------------------------|
b---5--5-5---3--3-1-3-1------3--3--1---4--4-4--3--1------------------|
g---4--4-4---2--2-2-2-2---0--0--0--0---3--3-3--2--2--2---------------|
d-------------------------------------------------------2------------|
a--------------------------------------------------------------------|
e--------------------------------------------------------------------|

(Rhy. Fig  1  x2)

REPEAT BRIDGE

B - A  x8	C - Bb  x8	  D - Csus2  x8	D to finish

%%%%%%%%%%%%%%%%%%%%%%%%%%%%%%%%%%%%%%%%%%%%%%%%%%%%%%%%%%%%%%%%%%%%%%%%%%%%%%%%
WALLY RAFFLE'S

Tabbed by Shane Murphy
Dropped-G Tuning
Capo 1
   Ddim5     D5	   Fdim5 Amaj7	   Gmaj7
e   -x-     -x -   -x -	  -4-	    -2-
b   -9-	    -10-   -12-	  -2-	    -3-
g   -7-     -7 -   -10-	  -2-	    -0-
d   -7-	    -7 -   -10-	  -2-	    -0-
G   -7-     -7 -   -10-	  -2-	    -x-
e   -x-	    -x -   -x -	  -x-	    -3-

INTRO		C

A	     G - A	    G - A		    G - A			G - A
Walter quit    the RAF,   when there was    no good air left
	      G - A	         G - A		        G	      A
Made it back    to the clan,
			   G	     A
The dog the wife the betting slip that's in his hand

C#   D    Ddim - D5
No-one's listening
A		G - A				G - A			    G
To the boy's 	Tim, Jaim and Gab,	 laughing it up while his
A				G - A
missus wrings her hands
	     G - A			 G - A
Pick 'em up 	after school,
		   G - A
Just make sure	   you're looking good

C# - D   Ddim - D5
No-one's leaving

CHORUS
A	 B	 F - Fdim - F
Walter plays
    A		 B	  F - Fdim - F
Get off your knees
	 A	    B		F - Fdim - F
If the kids are hell
	A	 B	 F - Fdim - F
'Till on the sand

Amaj7 - Gmaj7

A		  G - A			 G - A
It's mini coke	  and prawns again,
	     G - A			  G - A
In his room	     or in his hand
	   G - A			G - A
Not a day	   before he fell
		    G	     A
Propping up the bar at Raffle's hotel

C# - D   Ddim - D5
No-one's leaving

REPEAT CHORUS

Amaj7 - Gmaj7  x2

Tacet
No-one's listening

REPEAT CHORUS

A - G - A - G - A - G - A

%%%%%%%%%%%%%%%%%%%%%%%%%%%%%%%%%%%%%%%%%%%%%%%%%%%%%%%%%%%%%%%%%%%%%%%%%%%%%%%%
HEAVY COMFORT

Transcribed by Tim Mitchell (jma@acslink.net.au)

(Em7)Did you catch her in the window (A)do-right woman, do-right man.
(Am)Praying for heavy comfort to fill his (C)pockets with his (Em)hands.
Man in (Em7)chip shop, milk bar, postman, used to (A)fork out for your mouth.
Now the (Am)compliments have stopped since every (C)assets headed (Em)south.
Em7 A Am Em
He was a(Em7) sharp one, what a looker, the (A)last drunk to hang around.
Get (Am)well she could, coloured knickers are just (C)for the mirror (Em)now.
Had a (Em7)dream once it was morning in a (A)dress that never frayed.
Now your (Am)friends are like eyelashes, too many (C)dropping off these
(Em)days.
Em7 A Am
(Violin quickens)
Em A Em Am
(B)For forty seconds a day I was sure that we were (Em7)feeling the same
(A)way. Am
(Violin quickens again)
Em A Repeat 8 times
(B)For forty seconds a day I was sure that we were (Em7)feeling the same (A)way.

%%%%%%%%%%%%%%%%%%%%%%%%%%%%%%%%%%%%%%%%%%%%%%%%%%%%%%%%%%%%%%%%%%%%%%%%%%%%%%%%
DEAD LETTER CHORUS

Transcribed by Shane Murphy
Rhy. Fig. 1  x4
e--------------------------|
b--------------------------|
g-----------5--------------|
d--------2-----2----2------|
a-----3-----------0----0---|
e--------------------------|

(with Rhy. Fig. 1  x4)
Everyone talks fast and walks so slow, somebody in the town that don't know
Glasses off and strength to strength and leg for me that miffy's showing

Em	    Fmaj7         Em	        Fmaj7
Two kids sweat, as he tries to get his lips to her neck
       G		           D/F#
Is it all up to him, it's a concession film
	   F			 G#
But what do you do, what haven't been lately

Rhy. Fig. 1  x4

(with Rhy. Fig. 1  x4)
Dirty water interrupted by a bridger not to sore in the eye
The guy with better looking pants is ruining the other's night

Em		 Fmaj7	  Em			 Fmaj7
And will you hurt, as the air-conditioning dries out my shirt

CHORUS
       G		           D/F#
Is it all up to him, it's a concession film
	   F		     G#				C#
But what do you do, we haven't been lately
         C#m		    G#		C#
As if nothing I said now is new
	   C#m		           G#
As if you never heard anything true
	C	 	     F		    E
But we will try to the next time or the last time

Rhy. Fig. 1  x4

(with Rhy. Fig. 1  x4)
Everyone talks fast and walks so slow, somebody in the town that don't know
How strong the minutes fly from fifteen storey window high

Em	   Fmaj7  Em			Fmaj7
Two kids sweet, trying to stare the shame to his feet

REPEAT CHORUS

E let ring to finish

%%%%%%%%%%%%%%%%%%%%%%%%%%%%%%%%%%%%%%%%%%%%%%%%%%%%%%%%%%%%%%%%%%%%%%%%%%%%%%%%
BABY CLOTHES

Transcribed by David Lane

CHORDS USED

Bb7 F#7 C#7 Eb7 G7 Ab7 F7 Eb
6---2---9---11--3--4---1-----|
9---5---12--14--6--7---4--8--|
7---3---10--12--4--5---2--8--|
6---2---9---11--3--4---1--8--|
8---4---11--13--5--6---3--6--|
6---2---9---11--3--4---1-----|

VERSE 1

Bb7                            F#7
  I had that something from my head to my eye
Bb7                        F#7
  Just as I made it to the front of the line
Bb7                       C#7
  I only seen them out in front of the rehab
Eb7
  My buddy's check form is all blown to sag
Bb7                              F#7
And just because I'm spoonfed on milo and cheese
         Bb7                              G7
Don't go shooting every dog just 'coz one of us got fleas
Ab7                G7   F#7 F7
  And if you don't want to  grow wear some


CHORUS
Bb7  Eb
Baby clothes

(x8)

LINK

Bb7

VERSE 2

Bb7                   F#7
   And I'm so sick of sickness yeah
Bb7                            F#7
   Why do I write the songs so dickless yeah
Bb7                              C#7
   An' just cause I'm too fat on cheap smokes and wine
             Eb7
I can't look over your fat shoulder and make rock 'n' roll mine
Bb7                             F#7
   Been hearing so much chitter chatter chitter chatter
Bb7                               F#7
   And now I found something that matters, matters, matters, matters.
Ab7                 G7   F#7 F7
   But if you don't want to  grow wear some

CHORUS

Bb7  Eb
Baby clothes
(x6)

           Bb7    Eb
And if the bar is closed
  Bb7           Eb
I don't want to know

OUTRO

Bb7 / C#7 / Ab7 / Eb7

(x2)

----------------------------------------------------------------|
----------------------------------------------------------------|
------------------------------6-------------------------------8-|
---------------8----------6-8----------------6-----------8-10---|
----------8-10----4-4-6/8----------------6-8----6-6-8/10--------|
-6-6-8/10------------------------4-4-6/8------------------------|

REPEAT TO END

%%%%%%%%%%%%%%%%%%%%%%%%%%%%%%%%%%%%%%%%%%%%%%%%%%%%%%%%%%%%%%%%%%%%%%%%%%%%%%%%
PLEASE DON'T ASK ME TO SMILE

Tabbed by Shane Murphy
Tune down Ĺ step
     Csus2		C/B		D/C#
e	-3-		-0-		-2-|
b	-3-		-1-		-3-|
g	-0-		-0-		-2-|
d	-2-		-x-		-x-|
a	-3-		-2-		-4-|
e	-x-		-x-		-x-|

INTRO		G - Csus2 - G - Csus2 - G

	          Csus2  G
When I was in grade six
	    Csus2						G
I used to hold open the door for a girl and she called me a wimp
		   C		  C/B - Am			   G
She said there just isn't no need to be so fucking polite
	     C	     C/B - Am			     G
I politely agreed with her           I think she was right
      Am			 G
It just never entered my mind
	 Am						   G    C - C/B - Am - G
That a twelve year old came down to choosing sides

(with fill 1)	Csus2 - G
You said that I'd die if I had nothing to do
	Csus2				 G
Put a drink in my hand and I'd talk to anything that moves
	   C		C/B			Am				G
I just refused to give you what you think would make things right
		C    C/B		    Am		   G
And just to find hate when you've lost the will to fight

fill 1
e--------------10-----------3----3----3-----7------7-----7-----------|
b-------8-10-8----10b11-8---3----1----0-------8--------8-------------|
g----10-----------------------------------------9----7---------------|
d--------------------------------------------------------------------|
a--------------------------------------------------------------------|
e--------------------------------------------------------------------|

Am						     G
And would it be really in touch with the times
   Am				  	  G		C - C/B - Am - G
To put somebody down by choosing sides

CHORUS
	      C			 D
And she said show us them teeth give us them braces
C					     D
Show us that dental work that puts fear in twelve year old
	D - D/C# - C
faces
	  G	     Am	   C/B	 C			 C/B - Am
I could make you feel even half worthwhile just please don't ask me
	G
to smile
 (with fill 2)		Csus2 - G
And times when it still feels right
  Csus2				     G
I hold open the door for a girl or back down from a fight
	   C		  C/B - Am			   G
If there just isn't no need to be so fucking polite
   C		C/B	   Am			 G
At least it helps us sleep easier at night

fill 2
e--------------10-----------3---3---------7-----7-------7--8h7-------|
b-------8-10-8----10b11-8---3---0-------8-----8---8---8--------8-----|
g----10-------------------------------9-------------7----------------|
d--------------------------------------------------------------------|
a--------------------------------------------------------------------|
e--------------------------------------------------------------------|
[ Tab from: http://www.guitaretab.com/y/you-am-i/106966.html ]
Am				G
It just never enters my mind
     Am					   G
That ever should come down to choosing sides

REPEAT CHORUS

	  G	     Am	    C/B	     C
I could prove to you that a doer don't get hurt
     C      C/B	Am   C     G
Just please don't ask  me to smile

%%%%%%%%%%%%%%%%%%%%%%%%%%%%%%%%%%%%%%%%%%%%%%%%%%%%%%%%%%%%%%%%%%%%%%%%%%%%%%%%
MOON SHINES ON TROUBLE

Transcribed by Shane Murphy
    F#7sus4	    Bm7add6
e	-0-		-4-|
b	-0-		-3-|
g	-3-		-2-|
d	-4-		-4-|
a	-4-		-2-|
e	-2-		-x-

e--------------------------------------------------------------------|
b--3-3-3--3-0-3-3-3--3-3-3-3-3--3-3-3-3-3--3-3-3-3-3--3-3-3-3-3--3-0-|
g--4-4-4--4-0-2-2-2--2-0-1-1-1--1-1-1-1-1--1-0-0-0-0--0-0-0-0-0--0-0-|
d--4-4-4--4-0-0-0-0--0-0-0-0-0--0-0-0-0-0--0-0-0-0-0--0-0-0-0-0--0-0-|
a-2------------------------------------------------------------------|
e--------------------------------------------------------------------|

F#sus4 - F#

B	        D			G#5
Moon shines hard on trouble
					    		G
Check your watch by the late city shuttle
				F#sus4 - F#
She tries hard not to decide
B				D			G#5
Are you gonna tell 'em where you go nightly
					    G
When you're dressed so brightly
				      	F#sus4 - F# - F#7sus4
Is the money gonna come without a fight

B					B/Bb
A hundred halls and bubbles
					A
Have dug to all for trouble
					   E		C# - D
Just waiting for something to arrive
B				     B/Bb
And all your daydream heroes
				        	   A
Are losing their head tickling halos
			  	    E		C# - D
Who you gonna fall into tonight

e---------------------------------------------------------|
b-------------------9--9--9-------------------------------|
g-------------------9--9--9----7--7-----------------------|	x2
d------9--------7---9--9--9----7--7-----------------------|
a------9---7h9------7--7--7----5--5-----------------------|
e---7--7------------7--7--7-------------------------------|

Rhy. Fig. 1
e--------------------------------------------------------|
b--------------------------------------------------------|
g-------4--2b-------4--2b--------4--2b-------4--2b-------|	x2
d----------------0---------------------------------------|
a----2---------------------------------------------------|
e-----------------------------4-----------3--------------|
 B				D			G#5
Pay the bills for Uncle Ted he's a nutter
						G
Lives on bananas and peanut butter
							F#sus4 - F#
Keeps his teeth in a glass of Long Island tea
B				   D				G#5
Now are you gonna tell him where to go nightly
							G
Now that the kids are tucked in tightly
					    F#sus4 - F# - F#7sus4
Is the city big enough for you to hide

B					B/Bb
A hundred halls and bubbles
						B/A
Have dug to afford their trouble
				   E		C# - D
Waiting for a way out to arrive
B					B/Bb
And all your daydream heroes
						   B/A
Are losing their head tickling halos
				     E	C# - D
And who'ya gonna fall into tonight

e---------------------------------------------------------|
b-------------------9--9--9-------------------------------|
g-------------------9--9--9----7--7-----------------------|	x2
d------9--------7---9--9--9----7--7-----------------------|
a------9---7h9------7--7--7----5--5-----------------------|
e---7--7------------7--7--7-------------------------------|

e--------------------------------------------------------|
b--------------------------------------------------------|
g-------4--2b-------4--2b--------4--2b-------4--2b-------|	x4
d----------------0---------------------------------------|
a----2---------------------------------------------------|
e-----------------------------4-----------3--------------|

rhy. fig. 1  x2 (with fill 1)
Are you gonna tell 'em where you go nightly
Where you go nightly

fill 1 (with delay)
e-------------------------|
b-----------------5-------|
g--------4----------------|	x4
d-------------------------|
a-------------------------|
e-------------------------|

rhy fig 1  x2 (with fill 1 and fill 2)

fill 1  (with delay)		fill 2
e-------------			--19--19--19--19--19--19--19--19-|
b-------------			---------------------------------|
g------4------			---------------------------------|	x4
d-------------			---------------------------------|
a-------------			---------------------------------|
e-------------			---------------------------------|

Bm7add6 to finish

%%%%%%%%%%%%%%%%%%%%%%%%%%%%%%%%%%%%%%%%%%%%%%%%%%%%%%%%%%%%%%%%%%%%%%%%%%%%%%%%
WHO TAKES WHO HOME

tab by Danny Yau 

tuning EADGAD, capo 2

chords used

G        320000
G/F#     2x0000
G/F      1x0000
C        x3x03x
Eb       x6x06x
Em       022000
Em(maj7) 021000
Em7      020000
A        x02000
C*       x32000
D        xx0200

INTRO/OUTRO
G G/F# G/F C-Eb

VERSE
G                  G/F#
 When the day falls where do you go?
G/F         C -slide-    Eb
 Six thirty, city windows dirty.
G                  G/F#
 Office nightclubs, drinks, dates and movie stubs.
G/F      C -slide- Eb
 Be wary all secretaries.

CHORUS
Em           Em(maj7)
 And eyes roam for who takes who home
Em7                  A              C*
 As the rain's coming down to Friday night.
             D
 Don't let me down again.

CHORUS
Em           Em(maj7)
 And eyes roam for who takes who home
Em7                  A              C*
 As the rain's coming down to Friday night.
             D     Em
 Don't let me down again.
Em(maj7) Em7       A   C
         again (woo-hoo-oo)
             D      G G/F# G/F C-Eb
 Don't let me down again.

%%%%%%%%%%%%%%%%%%%%%%%%%%%%%%%%%%%%%%%%%%%%%%%%%%%%%%%%%%%%%%%%%%%%%%%%%%%%%%%%
FORGET IT SISTER

Tabbed by Drew Sutherland

This is an improved version of the one already on the net.  There are two
guitar parts in the solo - I attempted one of them but its not 100% correct -
if anyone could tab the other part or fix mine it would be greatly appreciated!

This song is played with a capo on the second fret
( all chords and tab relative to capo )

If you want to play it without the capo, just transfer these over the chords 	below -

   Capoíd chord		Open chord

    F --------------------------| G
    G --------------------------| A
    C --------------------------| D
    Am -------------------------| Bm
    Fm -------------------------| Gm
    G# -------------------------|  Bb
    Bb -------------------------|  C
    A7 -------------------------| B7

           F       G		C		  Am
Good morniní baby,  Iíve been stariní at you for days,
      F	        G		C		Am
Is there a little corner, of your heart that I can claim,
				      F		C   C/G   C
Cos I ainít slept for days,  ginger wine and lemonade,

	  F	      G	          C			 Am
I dig ya cos  you understand,  while I wash my face aní wash my hands,
      F	          G	      C			  Am
A hundred times a day,  aní does it really mean Iím going insane,
				  F	  Fm
Aní if that way I fall,  Iíll print ya face on every wall,

Chorus:
C	        Am        F	          G
Do you think that itís time we forgot about the local,
C      		   Am		     F		      G
The real estate man, your christmas tan, the bills and your bi-focals,
C	        Am	     F	      G
Leave the suburban crawl, the city gentry but,
C	   Am	          F	     G
Forget it sister,  I ainít goiní to the country,


F		   Fm		      C	    C/G     C
	Ahhhhhh...........    Ahh

	    G#
We could live on mashed potatoes,
			         C	C/G   C
Beer and leave the shitty neighbours behind,
G#
Ditch the crappy records,
				         Bb
Grab the portable aní see what weíll find,
	    C
Over that side...........

Solo ( guitar 1 ) :

E --------------------------0---1--3---------5-----7-----8---7---5-----------|
B --------------0---1---3----------------------------------------------------|
G ----0---2------------------------------------------------------------------|
D ---------------------------------------------------------------------------|
A ---------------------------------------------------------------------------|
E ---------------------------------------------------------------------------|

E ----7---5---3--------5---3---1------3---1---0----1-------------------------|
B ---------------------------------------------------------------8----5------|
G ---------------------------------------------------------------------------|
D ---------------------------------------------------------------------------|
A ---------------------------------------------------------------------------|
E ---------------------------------------------------------------------------|

E ----7------8---7---5---7--------8---7---------------------------7---8------|
B -------------------------------------------10---8-------8---10-------------|
G ---------------------------------------------------------------------------|
D ---------------------------------------------------------------------------|
A ---------------------------------------------------------------------------|
E ---------------------------------------------------------------------------|

E --10---12------10---8---7---7---5----------8---7---5------7---5---3--------|
B ---------------------------------------------------------------------------|
G ---------------------------------------------------------------------------|
D ---------------------------------------------------------------------------|
A ---------------------------------------------------------------------------|
E ---------------------------------------------------------------------------|

E -----1--------3---1-----3(p)1----------------------------------------0-----|
B -------------------------------------3---------------0---1---3---3---------|
G --------------------------------------------0---2--------------------------|
D ---------------------------------------------------------------------------|
A ---------------------------------------------------------------------------|
E ---------------------------------------------------------------------------|


	    G#
We could live on mashed potatoes,
				         C	C/G   C
Beer and leave the shitty neighbours behind,
G#
Ditch the crappy records,
				         Bb
Grab the portable aní see what weíll find,
	    C
Over that side...........

		  F       G		      C		        Am
Morniní baby, I feel like Iíve been stariní at you for days,
	    F            G		C		Am
Is there a little corner, of your heart that I can claim,
					    F
Cos I ainít slept for days, ginger wine and lemonade,

Chorus:
	C	        Am        F	          G
Do you think that itís time we forgot about the local,
       C      		   Am		     F		      G
The real estate man, your christmas tan, the bills and your bi-focals,
C	        Am	     F	      G
Leave the suburban crawl, the city gentry but,
C	   Am	          F	     G		C
Forget it sister,  I ainít goiní to the country,

A7	       F		  G	       C
Yeah, I ainít goiní to the country,
A7	F	     G		C
I ainít goiní to the country,
A7	F	     G
I ainít goiní to the country,
	Outro chords ( single strums ) :    C   A7   F   G    C

Please send any comments or corrections to  drew_sutherland@hotmail.com

%%%%%%%%%%%%%%%%%%%%%%%%%%%%%%%%%%%%%%%%%%%%%%%%%%%%%%%%%%%%%%%%%%%%%%%%%%%%%%%%
BOULDER FAIR

tabbed by Peter Greer  and Ian Dunn

Played with a capo on the 2nd fret

Chords Used (relative to capo)

   E Bm F#m Am G G/F# G/F Eo  C  D  A C#m Fm
e--0--2--2--0--3--3----3---1--0--2--0--4---1-|
b--0--3--2--1--0--0----0---0--1--3--2--5---1-|
g--1--4--2--2--0--0----0---1--0--2--2--6---2-|
d--2--4--4--2--0--0----0---0--2--0--2--6---3-|
a--2--2--4--0--2--0----0------3--0--0--4---3-|
e--0-----2-----3--2----1-------------------1-|

Intro- E  Bm  F#m  Am

E                      Bm
Tie the sheets to the green washing line
F#m                Am
And check if the weather's fine
E                       Bm
It's that time of the calender year
F#m               Am
The chateau and millenium wine
G                        G/F#
Are the kids washed and t-shirts clean
G/F                     Eo
Like your weekly with men's magazines
C     D
October

E                                Bm
By noon it's a sure thing that tempers will rise
F#m                  Am
As the first of the kegs is drained dry
E                 Bm
Contemplating the last of the roast
F#m                                     Am
Is that your wife that's kissing the under twelve's coach?
G                        G/F#
The prodigy's job is to drive the kids home
G/F                       Eo
Newspaper hats and a hair frosted comb
C    C D
October

BRIDGE-  A  C#m  F#m Fm F#m Fm
         A  C#m  F#m Dm F#m Fm

G                     G/F#
Have you caught up on your neighbour's life
G/F                            Eo
let's drink to the red in the heart of the sky
C      D   C      D   C      D
It's over, it's over, it's over

Outro- E  Bm  F#m  Am
       E  Bm  F#m  Am
       E  E   E    E

Ending e--5--7--8--7-----|
       b--5--7--8--7-----|
       e-----------------|

%%%%%%%%%%%%%%%%%%%%%%%%%%%%%%%%%%%%%%%%%%%%%%%%%%%%%%%%%%%%%%%%%%%%%%%%%%%%%%%%
SIX

Transcribed by David Lane

Gadd9
  5
  3
  4
  5
  5
  3

CHORUS RIFF
----------------------------------------------------|
----------------------------------------------------|
-----------------------------8-10-8-7-6-5---5-7-5-7-|
-----------------------------6-6--6-5-4-3---3-3-3-3-|
11-13--1110-9-8---8-10-8-10-------------------------|
-9--9---9-8-7-6---6--6-6--6-------------------------|

VERSE 1

            G         B           C                Bb     B        G
When you're six years old you can tell how bad the girl behind you smells.
               B          C           Bb          B     G
Chocolates for dinner and tea and the gravel rash on my knee.
               B          C                         Bb      B            G
Never beats me people for too tall and your mum and dad are screaming at walls.
                B            C           Bb              B          G
There's just so much you can do when you get up for them until they shoo.

CHORUS

CHORUS RIFF
If it's Tuesday then I'm a train. No two days are ever the same.
CHORUS RIFF
Raggety ends of a tree, is that my grandmother following me?

VERSE 2
            G         B           C          Bb              B        G
When you're six years old you can tell which parents are all going to hell.
        B          C             Bb         B        G
Custard apples and cream and the tree house made for three.
               B          C                 Bb               B
Never beats me people for too tall and your house guests are screaming at walls.
                B            C           Bb              B          G
There's just so much you can do when you get up for them until they shoo.

CHORUS

CHORUS RIFF
Take a look what I found, it's a bus ticket left on the ground.
CHORUS RIFF
The thrill to sign up to a team and my brother never knows where I've been.

CODA

G      G/F#      Em
  Quit bothering me.
           A                        Cm
There's so much you don't know just going on and dig your knee.

(x4)

G / G

            G         B           C                Bb     B        G
When you're six years old you can tell how bad the girl behind you smells.
               B          C           Bb          B     Gadd9
Chocolates for dinner and tea and the gravel rash on my knee.

%%%%%%%%%%%%%%%%%%%%%%%%%%%%%%%%%%%%%%%%%%%%%%%%%%%%%%%%%%%%%%%%%%%%%%%%%%%%%%%%
I'LL MAKE YOU HAPPY - YOU AM I
(Vander/Young)

transcribed by- C.Hamilton (digibeta@rpi.net.au)
This is another Easybeats song which You Am I have covered. It appears
as a B-side on the Good Mornin' single and is part of their live act (or
when I've seen them anyway). They also played this at the ARIA's after
the group had one six awards to close the show in appropriate style.

The main riff which starts the song and is played under the verses is
played by Greg Hitchcock. Tim plays chords.

(Riff1):
         E               D
G - | -9-9-7-9-9-7-9-9-7-9-12-9-7-

INTRO - main riff x4

VERSE 1:
(riff1)
I
(riff1)
I give
(riff1)
I give you
(riff1)
I give you love
E                         G
I give you loving all the time
E                               G
I give you the kisses just like wine
E                              G
Are his kiss taste sweeter than mine?
   B
Oh no, no, no

CHORUS:
E             G      B
I'll make you happy (just like your mamma wants)
E             G      B
I'll make you happy (just like your daddy said)
E             G
I'll make you happy
B                            D        A
Just like your daddy said to me


Repeat Main Riff twice

Verse 2:
(riff1)
If
(riff1)
If you
(riff1)
If you don't
(riff1)
If you don't think
E                             G
If you don't think I'm your man
E                         G
Find someone then if you can
E                            G
And get them to hold your hand
    B
Not me, me, me

CHORUS:
E             G      B
I'll make you happy (just like your mamma wants)
E             G      B
I'll make you happy (just like your daddy said)
E             G
I'll make you happy
B                            D       A
Just like your daddy said to me


Main riff x2 then SOLO (??)

Then repeat verse 1 again, followed by the chorus twice.

%%%%%%%%%%%%%%%%%%%%%%%%%%%%%%%%%%%%%%%%%%%%%%%%%%%%%%%%%%%%%%%%%%%%%%%%%%%%%%%%
WHO TURNED OUT THE LIGHTS? - YOU AM I
(from the EP Trike)
Transcribed by Shane Murphy
Guitar 1: Capo 1
Guitar 2(slide): Capo 1 and Dropped-D Tuning
	D/Eb		Bm/A		D/C#
e	-2-		-x-		-2-|
b	-3-		-3-		-3-|
g	-2-		-4-		-2-|
d	-1-		-4-		-x-|
a	-x-		-0-		-4-|
e	-x-		-x-		-x-|

G1:	G	D	D/Eb		Em			  C
G2:
e----------------------------------------15--------------------------|
b-0/-------------------------------15/17----15\12------7 / 11--------|
g-0/----------------------------------------------12---7 / 11--------|
d-0/---------------------------------------------------7 / 11--------|
a--------------------------------------------------------------------|
d--------------------------------------------------------------------|

	G	D	D/Eb		Em
e---------------------------------------10-10/12\10------------------|
b-----------------------------------12--------------12---------------|
g--------------------------------------------------------------------|
d---------------------------------------------------------0 / 5------|
a---------------------------------------------------------0 / 5------|
d---------------------------------------------------------0 / 5------|

     G
Fire one shot in the sky
   D			    D/Eb			Em
To clear the shit and what it's trying to hide
		C
On the other side
	G
Got a message from TV
D				    D/Eb			Em(w/ fill 1)
Got it straight 'cause it's talking straight to me
Fill 1 (capo 1)
e---0--------|
b-0-----0----|
g------------|
d------------|
a------------|
e------------|
		C
And now the news is made
One more kick 'cause the hour is ticking by
e------------------------------------|
b------------------------------------|
g----2--2--2--2--2--2--2--2--2-2-----|
d----1--1--1--1--1--1--1--1--1-1-----|
a------------------------------------|
e------------------------------------|

G - Em - Am		D	    G		Em
	   Who turned out the lights?
Am	   D		 G	   Em
Who turned out the lights?
	    A					 D
I've been here before, just expected so much more
G1:			  G	D	D/Eb	   Em			    C
G2:
e-10/12-15-----------------------------------------------------------|
b----------15-12/10------------------------12-(12)/15-17\-12---------|
g-------------------12-----------------------------------------------|
d--------------------------------------------------------------------|
a--------------------------------------------------------------------|
d--------------------------------------------------------------------|

			 G
And everything's a cold sore at eighteen
    D			D/Eb			    Em (w/ fill 2)
And everywhere is where I've never been
G2: Fill 2
e------------------------|
b--12-(12)/15-17\-12-----|
g------------------------|
d------------------------|
a------------------------|
d------------------------|
			 C
And will I ever get clean
	    G
I used to see the ground so plain
    D				  D/Eb		   Em
The trees can stop so the sky can start again
		C
And now the news is made
One more kick 'cause the hour is ticking by (w/ fill 3)
G1:							G2: Fill 3
e------------------------------------	e---------|
b----0--0--0--0--0--0--0--0--0-0-----	b-0 / 12--|
g----2--2--2--2--2--2--2--2--2-2-----	g-0 / 12--|
d----1--1--1--1--1--1--1--1--1-1-----	d-0 / 12--|
a------------------------------------	a---------|
e------------------------------------	d---------|

G - Em - Am		D	    G		Em (w/ fill4)
	   Who turned out the lights?
G2: Fill 4
e--------------------------------------------------------------------|
b--------------------------------------------------------------------|
g---7--(7)/9--(9)\--4h5-(4)h5-(4)h5-(4)h5-(4)h5-(4)h5-(4)h5-(4)h5----|
d--------------------------------------------------------------------|
a--------------------------------------------------------------------|
e--------------------------------------------------------------------|
Am	   D		 G	   Em
Who turned out the lights?
	    A					 D
I've been here before, just expected so much more
			 G
Who turned out the lights?

Bm		Bm/A			     E
If I didn't see so clearly with my eyes closed
		    Gm
Then what would I know
D		   D/C#					  Bm - Bm/A
Walk around at night to find something to stumble into
				   Gm	       D
Just Ďcause itís something to do, oh yeah
		    Bm
'Cause it's not where you live
    D			  C
But if you sleep at night ...

Solo (capo 1)
	     G		    D		 D/Eb	    Em		     C
	 goodnight
e--------------------------------------------------------------------|
b-----8-10-12\10-10-12------10---8---10-10/12-8---12-15-15b17r15-12--|
g-7/9-------------------7/9----9---9---------------------------------|
d--------------------------------------------------------------------|
a--------------------------------------------------------------------|
e--------------------------------------------------------------------|

				 G		    D	    D/Eb		Em
e-----------15-17----------------------------------------------------|
b----15/17------------------------10----12-10-----12/15-15b17r15-----|
g------------------14b15-12---7/9-----9-------12---------------------|
d--------------------------------------------------------------------|
a--------------------------------------------------------------------|
e--------------------------------------------------------------------|

			   C
e-------15--15b17r15-15---17-17b19r17--17\--12-----------------------|
b---17---------------------------------------------------------------|
g--------------------------------------------------------------------|
d--------------------------------------------------------------------|
a--------------------------------------------------------------------|
e--------------------------------------------------------------------|

One more kick 'cause the hour is ticking
e------------------------------------|
b------------------------------------|
g----2--2--2--2--2--2--2--2--2-2-----|
d----1--1--1--1--1--1--1--1--1-1-----|
a------------------------------------|
e------------------------------------|

One more prick 'cause the hour is ticking by (w/ fill 3)
e------------------------------------|
b------------------------------------|
g----2--2--2--2--2--2--2--2--2-2-----|
d----1--1--1--1--1--1--1--1--1-1-----|
a------------------------------------|
e------------------------------------|

G - Em - Am		D	    G		Em (w/ fill 4)
	   Who turned out the lights?
Am	   D		 G	   Em (w/ fill 4)
Who turned out the lights?
	    A					 D
I've been here before, just expected so much more
			 G
Who turned out the lights?

G1: D		 D/C#	    Bm	 A	    G		   Gm		    D
G2:
e---------------------------------------------------------------------|
b---------------------------------------------------------11/---16----|
g--/10-8-7-8-10-8-7-8-10-8-7-8-10-8-7-8-10b11r10---10/13--------------|
d---------------------------------------------------------------------|
a---------------------------------------------------------------------|
d---------------------------------------------------------------------|
e---------------------------------------------------------------------|
b---0  /  12----------------------------------------------------------|
g---0  /  12----------------------------------------------------------|
d---0  /  12----------------------------------------------------------|   to finish
a---0  /  12----------------------------------------------------------|
d---0  /  12----------------------------------------------------------|

%%%%%%%%%%%%%%%%%%%%%%%%%%%%%%%%%%%%%%%%%%%%%%%%%%%%%%%%%%%%%%%%%%%%%%%%%%%%%%%%
I CAN HEAR THE GRASS GROW

Originally Recorded by The Move
Transcribed by Shane Murphy

Dropped-D Tuning

  G G/F# E F#5
e-x--x---x--x-|
b-3--3---5--x-|
g-0--0---4--x-|
d-0--0---2--4-|
a-x--x---2--4-|
d-5--4---2--4-|

Rhy. Fig. 1  x1
e--------------------|
b--------------------|
g--------------------|
d--------------------|
a--0-2-0-2---0-------|
d----------5---4-5---|

e-----------------------------------------------------|
b-----------------------------------------------------|
g-11-11-12-11-12b14r12-11-9-11b12r11-9-7-9/11-11-11---|
d-0--0--0--0--0---------0-0-0--------0-0-0----0--0----|
a-0--0--0--0--0---------0-0-0--------0-0-0----0--0----|
d-0--0--0--0--0---------0-0-0--------0-0-0----0--0----|

e---------------------------------|
b---------------------------------|
g-11-11-12-11-12b14r12-11-9-11----|
d-0--0--0--0--0---------0-0-0-----|
a-0--0--0--0--0---------0-0-0-----|
d-0--0--0--0--0---------0-0-0-----|

Rhy. Fig. 1  x1

D				  Dsus4	D		(w/ rhy. fig. 1  x1)
I see the people all in a line, I'm thinking they look at me
D				   Dsus4	 D		(w/ rhy. fig. 1  x1)
I can't imagine that their minds are thinking the same as me?

CHORUS
G		   G/F#
I can hear the grass grow
E		   F#5   G
I can hear the grass grow
A					(w/ rhy. fig. 1  x1)
I see rainbows in the evening

D			  Dsus4   D				(w/ rhy. fig. 1  x1)
My head's attracted to a magnetic wave of sound
D				Dsus4		D		(w/ rhy. fig. 1  x1)
Lead springs and golden circles are making their way around

REPEAT CHORUS

e------------------------------------------------------|
b------------------------------------------------------|
g-11-11-12-11-12b14r12-11-9-11b12r11-9-7-9/11-11-11----|
d-0--0--0--0--0---------0-0-0--------0-0-0----0--0-----|
a-0--0--0--0--0---------0-0-0--------0-0-0----0--0-----|
d-0--0--0--0--0---------0-0-0--------0-0-0----0--0-----|
e------------------------------------------------------|
b------------------------------------------------------|
g-11-11-12-11-12b14r12-11-9-11---9---------------------|
d-0--0--0--0--0---------0-0-0----0---------------------|
a-0--0--0--0--0---------0-0-0----0---------------------|
d-0--0--0--0--0---------0-0-0----0---------------------|


 Can't seem to hold the mouth aside
e--------------------------------------------7----------------------|
b------7-------7--------7------8------8------5------8---------------|
g-7----7-------7--------7------5------5------5------5---------------|
d-0----0-------0--------0------5------5------5------5---------------|
a-0----0-------0--------0-------------------------------------------|
d-0----0-------0--------0-------------------------------------------|

  My	 senses follow with the skies
e-------------------------------------------7-----------------------|
b-7----7------7------7--------8------8------5------8----------------|
g-7----7------7------7--------5------5------5------5----------------|
d-0----0------0------0--------5------5------5------5----------------|
a-0----0------0------0----------------------------------------------|
d-0----0------0------0----------------------------------------------|

	Yeah I won't do without my  baby
e-------------------------------------------------------------------|
b-------------------------------------------------------------------|
g-------------------------------------------------------------------|
d-2----4--0--5--0--4--2----2--4--0--5--0--4--2----------------------|
a-2----4--0--5--0--4--2----2--4--0--5--0--4--2----------------------|
d-2----4--0--5--0--4--2----2--4--0--5--0--4--2----------------------|

Yeah I need you to help now baby
e-------------------------------------------------------------------|
b-------------------------------------------------------------------|
g-------------------------------------------------------------------|
d-2----4--0--5--0--4--2----2--4--0--5--0--4--2----------------------|
a-2----4--0--5--0--4--2----2--4--0--5--0--4--2----------------------|
d-2----4--0--5--0--4--2----2--4--0--5--0--4--2----------------------|

Yeah I won't do without now baby
e-------------------------------------------------------------------|
b-------------------------------------------------------------------|
g-------------------------------------------------------------------|
d-2--4--0--5--0--4--2----2--4--0--5--0--4--0------------------------|
a-2--4--0--5--0--4--2----2--4--0--5--0--4--0------------------------|
d-2--4--0--5--0--4--2----2--4--0--5--0--4--0------------------------|

Rhy. Fig. 1  x1

D				  Dsus4	D		(w/ rhy. fig. 1  x1)
Put your head down to the crowd and listen to your mind
D				    Dsus4	 D		(w/ rhy. fig. 1  x1)
Think against the watch you found, I know that you're not my kind

REPEAT CHORUS

e------------------------------------------------------|
b------------------------------------------------------|
g-11-11-12-11-12b14r12-11-9-11b12r11-9-7-9/11-11-11----|
d-0--0--0--0--0---------0-0-0--------0-0-0----0--0-----|
a-0--0--0--0--0---------0-0-0--------0-0-0----0--0-----|
d-0--0--0--0--0---------0-0-0--------0-0-0----0--0-----|
e------------------------------------------------------|
b------------------------------------------------------|
g-11-11-12-11-12b14r12-11-9-11---9---------------------|
d-0--0--0--0--0---------0-0-0----0---------------------|
a-0--0--0--0--0---------0-0-0----0---------------------|
d-0--0--0--0--0---------0-0-0----0---------------------|

 Can't seem to hold the mouth aside
e--------------------------------------------7----------------------|
b------7-------7--------7------8------8------5------8---------------|
g-7----7-------7--------7------5------5------5------5---------------|
d-0----0-------0--------0------5------5------5------5---------------|
a-0----0-------0--------0-------------------------------------------|
d-0----0-------0--------0-------------------------------------------|

  My	 senses follow with the skies
e-------------------------------------------7-----------------------|
b-7----7------7------7--------8------8------5------8----------------|
g-7----7------7------7--------5------5------5------5----------------|
d-0----0------0------0--------5------5------5------5----------------|
a-0----0------0------0----------------------------------------------|
d-0----0------0------0----------------------------------------------|

	Yeah I won't do without my  baby
e-------------------------------------------------------------------|
b-------------------------------------------------------------------|
g-------------------------------------------------------------------|
d-2----4--0--5--0--4--2----2--4--0--5--0--4--2----------------------|
a-2----4--0--5--0--4--2----2--4--0--5--0--4--2----------------------|
d-2----4--0--5--0--4--2----2--4--0--5--0--4--2----------------------|

Yeah I need you to help now baby
e-------------------------------------------------------------------|
b-------------------------------------------------------------------|
g-------------------------------------------------------------------|
d-2----4--0--5--0--4--2----2--4--0--5--0--4--2----------------------|
a-2----4--0--5--0--4--2----2--4--0--5--0--4--2----------------------|
d-2----4--0--5--0--4--2----2--4--0--5--0--4--2----------------------|

Yeah I won't do without now baby
e-------------------------------------------------------------------|
b-------------------------------------------------------------------|
g-------------------------------------------------------------------|
d-2--4--0--5--0--4--2----2--4--0--5--0--4--0------------------------|
a-2--4--0--5--0--4--2----2--4--0--5--0--4--0------------------------|
d-2--4--0--5--0--4--2----2--4--0--5--0--4--0------------------------|

Rhy. Fig. 1  x1

D				  Dsus4	D		(w/ rhy. fig. 1  x1)
I see the people all in a line, I'm thinking they look at me
D				   Dsus4	 D		(w/ rhy. fig. 1  x1)
I can't imagine that their minds are thinking the same as me?

REPEAT CHORUS  x4 (fade to finish in 4th chorus)
Related for Hourly Daily tab