You Ate My Dog - Hospital tab

Lead Guitar (R ear)

Intro pt. 1 
Clean with delay

Eb|--------|--------|----------------|--------|
Bb|--------|--------|----------------|--------|
Gb|10---10-|---0----|----10--12--10--|--------|
Db|0-------|10---10-|1012--12--------|101210--|
Ab|--------|--------|----------------|--------|
Db|--------|--------|----------------|--------|

Eb|--------|--------|----------------|------------12--|
Bb|--------|--------|--------10--10--|--------10------|
Gb|10---10-|---0----|----10----12--12|----------------|
Db|0-------|10---10-|1012--12--------|101212----------|
Ab|--------|--------|----------------|----------------|
Db|--------|--------|----------------|----------------|

Eb|13------|12------|
Bb|--1010--|--1010--|
Gb|--------|--------|
Db|--------|--------|
Ab|--------|--------|
Db|--------|--------|

Intro pt 2.

Eb|--------|--------|--------|--------|--------|--------|
Bb|--------|--------|--------|--------|--------|--------|
Gb|10------|10------|--------|--------|10------|10------|
Db|0-------|8-------|--------|--------|0-------|8-------|
Ab|0-------|8-------|--------|--------|0-------|8-------|
Db|0-------|8-------|--------|--------|0-------|8-------|

Verse

Eb|--------|--------|--------|--------|
Bb|--------|--------|--------|--------|
Gb|--------|--------|--------|--------|
Db|--------|55555555|33333333|33333333|
Ab|33333333|33333333|11111111|11111111|
Db|33333333|--------|--------|--------|
   xxxxxxxx xxxxxxxx xxxxxxxx xxxxxxxx

Eb|--------|--------|--------|--------|
Bb|--------|--------|--------|--------|
Gb|--------|--------|--------|--------|
Db|--------|55555555|33333333|3-------|
Ab|33333333|33333333|11111111|0-------|
Db|33333333|--------|--------|--------|
   xxxxxxxx xxxxxxxx xxxxxxxx

Chorus

Eb|--------|--------|--------|--------|
Bb|--------|--------|--------|--------|
Gb|10------|9-------|--------|--------|
Db|x-------|x-------|3-----5-|7---10--|
Ab|8-------|7-------|5-----7-|8---8---|
Db|0-------|8-------|5-----7-|8---8---|

Eb|--------|--------|--------|--------|
Bb|--------|--------|--------|--------|
Gb|12----5-|7-------|12----10|14----12|
Db|x-----x-|x-------|x-----x-|x-----x-|
Ab|10----3-|5-------|10----8-|12----10|
Db|--------|--------|--------|--------|

Eb|--------|--------|
Bb|--------|--------|
Gb|7-------|5---3---|
Db|x-------|x---x---|
Ab|5-------|3---5---|
Db|--------|--------|

Bridge
Clean

Eb|--------|--------|--------|--------|
Bb|--------|--------|--------|--------|
Gb|--------|--------|--------|--------|
Db|--------|--------|3-----3-|3-------|
Ab|--------|--------|5-----0-|1-------|
Db|--------|--------|5-------|--------|

Eb|----------------|----------------|--------|--------|
Bb|----------------|----------------|--------|--------|
Gb|--0---0---0---0-|--0---0---0---0-|--------|--------|
Db|-7---7---7---7--|-3---3---3---3--|3-----3-|3-------|
Ab|5---5---5---5---|1---1---1---1---|5-----0-|1-------|
Db|----------------|----------------|5-------|--------|

Eb|----------------|----------------|
Bb|----------------|----------------|
Gb|--0---0---0---0-|--0---0---0---0-|
Db|-7-7-7-7-7-7-7-7|-7-7-7-7-7-7-7-7|
Ab|5---5---5---5---|5---5---5---5---|
Db|----------------|----------------|

Eb|--------|--------|--------|--------|
Bb|--------|--------|--------|--------|
Gb|5-------|2-------|2-------|0-------|
Db|0-------|0-------|0-------|3-------|
Ab|--------|3-------|0-------|1-------|
Db|--------|--------|--------|--------|

Eb|--------|--------|--------|--------|
Bb|--------|--------|--------|--------|
Gb|5-------|2-------|2-------|0-------|
Db|0-------|0-------|0-------|3-------|
Ab|--------|3-------|0-------|1-------|
Db|--------|--------|--------|--------|

Eb|--------|--------|--------|--------|
Bb|--------|--------|--------|--------|
Gb|5-------|--------|--------|--------|
Db|0-------|--------|--------|--------|
Ab|--------|--------|--------|--------|
Db|--------|--------|--------|--------|

Eb|--------|--------|--------|--------|
Bb|--------|--------|--------|--------|
Gb|--------|--------|--------|--------|
Db|00000000|--------|33333333|55555555|
Ab|--------|11111111|--------|--------|
Db|--------|--------|--------|--------|
   xxxxxxxx xxxxxxxx xxxxxxxx xxxxxxxx

Eb|--------|--------|--------|----------------|
Bb|--------|--------|--------|----------10----|
Gb|--------|--------|--------|------10--------|
Db|57057053|---33---|7-------|10--12--12--12--|
Ab|--------|111--33-|----8---|----------------|
Db|--------|--------|--------|----------------|

Eb|--------|--------|--------|----------------|
Bb|--------|--------|--------|----------10----|
Gb|--------|--------|--------|------10--------|
Db|57057053|---33---|7-------|10--12--12--12--|
Ab|--------|111--33-|----8---|----------------|
Db|--------|--------|--------|----------------|

Eb|--------|13------|
Bb|--------|--------|
Gb|10------|12------|
Db|----10--|--------|
Ab|--------|--------|
Db|--------|--------|

Pre-chorus

Eb|--------|--------|--------|--------|
Bb|--------|--------|--------|--------|
Gb|10------|10------|10------|12------|
Db|8-------|8-------|7-------|x-------|
Ab|8-------|8-------|7-------|10------|
Db|8-------|8-------|7-------|--------|

Chorus

Eb|--------|--------|--------|--------|
Bb|--------|--------|--------|--------|
Gb|7-------|--------|--------|--------|
Db|x-------|--------|--------|--------|
Ab|5-------|--------|--------|--------|
Db|--------|--------|--------|--------|

Eb|--------|--------|--------|--------|
Bb|--------|--------|--------|--------|
Gb|--------|--------|12----10|14------|
Db|--------|--------|x-----x-|x-------|
Ab|--------|--------|10----8-|12------|
Db|--------|--------|--------|--------|

Eb|----------------|----------------|
Bb|----------------|----------------|
Gb|14-----------12-|7---------14-12-|
Db|x------------x--|x---------x--x--|
Ab|12-----------10-|5---------12-10-|
Db|----------------|----------------|

Eb|----------------|----------------|
Bb|----------------|----------------|
Gb|10--------14-12-|7---------14-12-|
Db|x---------x--x--|x---------x--x--|
Ab|8---------12-10-|5---------12-10-|
Db|----------------|----------------|

Outro pt 1.

Eb|--------|10------|5-------|
Bb|10------|8-------|6-------|
Gb|10------|9-------|7-------|
Db|0-------|10------|5-------|
Ab|--------|--------|--------|
Db|--------|--------|--------|  x4

Outro pt 2.
Clean

Eb|--------|----8---|------5-|
Bb|----8-10|------8-|--6-----|
Gb|--10----|--9-----|----7---|
Db|0-------|10------|5-------|
Ab|--------|--------|--------|
Db|--------|--------|--------| 

Eb|--------|----8---|------5-|
Bb|----8-10|------10|--6-----|
Gb|--10----|--9-----|----7---|
Db|0-------|10------|5-------|
Ab|--------|--------|--------|
Db|--------|--------|--------| 

Eb|--------|
Bb|--------|
Gb|7-------|
Db|0-------|
Ab|--------|
Db|--------|
Tap to rate this tab
 
# A B C D E F G H I J K L M N O P Q R S T U V W X Y Z