Song name
# A B C D E F G H I J K L M N O P Q R S T U V W X Y Z

You Blew It - The Fifties tab

-----------------------------------------------------------------------------
                             THE FIFTIES - You Blew It!
-----------------------------------------------------------------------------
Hey all. This might not be exactly 100% with the album, because I've tabbed it all out
in one guitar track, but this sounds right to me. I tried my best with the timing, but
listen to the song and you'll get it.

Tuning: In half-step down, and then drop the top string to Db. You can also play it in
Drop D, you'll just off with the album. Also, if you want, you can tune the Gb string to
Ab and the Bb string to Db to be able to play those strings open and experiment around, 
but that's up to you.

You Blew It!: http://topshelfrecords.com/tsr2/_pages/artist_you_blew_it.php

Part 1
eb|-------------------------------------------------------------------|
Bb|-------3-------3-------3-------3-------3-------3------3--------3---|
Gb|---2-------2-------2-------2-------2-------2-------2-------2-------|
Db|-------------------------------------------------------------------|
Ab|-------------------------------------------------------------------|
Db|-5---5---5---5---5---5---5---5---0---0---0---0---2---2---4---4-----|
*I suggest using your pinky for the 4 and 5

Part 2
eb|-------------------------------------------------------------------|
Bb|-------------------------------------------------------------------|
Gb|-------4-------4-------4-------4-------2-------2-------2-------2---|
Db|---0-------0-------0-------0-------0-------0-------0-------0-------|
Ab|-------------------------------------------------------------------|
Db|-5---5---5---5---5---5---5---5---0---0---0---0---2---2---4---4-----|

Part 3
eb|-----------------------------------------------------------|
Bb|-----------------------------------------------------------|
Gb|-------4-------4---------------7-------6-------7---6-------|
Db|---0-------0-------0-------0-------0-------0-----------0---|
Ab|-----------------------------------------------------------|
Db|-5---5-------5---4---4---7---7-------7-------7-------7-----|

Part 4
eb|------------------------------------------------------------------------|
Bb|------------------------------------------------------------------------|
Gb|--------11---------------11----------------11----------------11------11-|
Db|----0-------0----0---0--------12---0----0-------0---0----0-------12-----|
Ab|------------------------------------------------------------------------|
Db|-12--12---12--12---11--11---11--11---10--10---10--10---9---9---9---9----|

Part 5
eb|---------------------------------------|
Bb|---------------------------------------|
Gb|---6h7p6---------------2---2---2---2---|
Db|---------7----7h9p7--------------------|
Ab|---------------------------------------|
Db|-5----------0--------2---2---4---4-----|
Tap to rate this tab
# A B C D E F G H I J K L M N O P Q R S T U V W X Y Z