Song name
# A B C D E F G H I J K L M N O P Q R S T U V W X Y Z

You Me At Six - Underdog tab

You Me At Six
Underdog

Guitar 1 (Max) - Standard
Guitar 2 (Chris) - Standard/Drop D
[Every other YMA6 song ive tabbed and learnt is in drop D, but the main riff
that guitar 1 plays is easier played in standard. Its possible to play in
drop D but its a bit more complicated. I think max plays this in standard. Guitar 
2 isn't affected.

If you have any questions just comment, and dont forget to rate!
Thanks, enjoy :D


###Intro###
[00:00 > 00:21]

Guitar 1
|-----------------------------|
|-----------------------------|
|-----------------------------|
|3-3-3------------------------|  x6
|4-4-4---4-4-4---3-3-3-3-3-3-3|
|--------6-6-6---4-4-4-4-4-4-4|

###Pre Chorus 1###
[00:21 > 00:26]

Guitar 1
|------|-------|
|------|-------|
|------|-------|
|-8----|8~----\|
|-8-x16|8~----\|
|-6----|6~----\|

Guitar 2
|------|----|
|------|----|
|10----|10\-|
|x--x16|x-\-|
|8-----|8-\-|
|------|----|

###Chorus###
[00:26 > 00:41]

Guitar 1        
|---|---|---|---|   |-------------|
|---|---|---|---|   |-------------|
|---|---|6--|---|   |-------------|
|8--|4--|6--|6--|x2 |8~-----------|
|8--|4--|4--|6--|   |8~-----------|
|6--|2--|---|4--|   |6~------6-4-6|

Guitar 2
|-------------------------------------------------------------|    |--------------|
|-------------------------------------------------------------|    |--------------|
|----6---8-6---6v----6---8-6---6v----6---8-6---6-5b6r5b6r5b6r5|    |--------------|
|8-----8-----8-----8---8-----8-----8---8-----8----------------| x2 |8v~------8-6-8|
|-------------------------------------------------------------|    |--------------|
|-------------------------------------------------------------|    |--------------|

###Verse###
[00:41 > 00:54]

###Pre Chorus 2###
[00:54 > 00:59]

Guitar 1
|---------------------------------------------|
|---------------------------------------------|
|---------------------------------------------|
|8~------11-11-11-8~--------------------------|
|8~------11-11-11-8~-----------4-4-4-4-6-6-6-6|
|6~------9--9--9--6~-----------2-2-2-2-4-4-4-4|
                               . . . . . . . .

Guitar 2
|---------------------------------------------|
|---------------------------------------------|
|--------6-6-6--------------------------------|
|8v~-----------8v~-------------4-4-4-4-6-6-6-6|
|---------------------------------------------|
|---------------------------------------------|
                               . . . . . . . .

###Double Chorus###
[00:59 > 01:24]

###Bridge###
[01:24 > 01:55]

Guitar 1
|-------------------------------|
|-------------------------------|
|-------------------------------|
|3-------------------3-3-3-3-3-3|
|3---3-3-3-3-3-3-3-3-3-3-3-3-3-3|
|1---1-1-1-1-1-1-1-1-1-1-1-1-1-1|
     . . . . . . . . 

|---|---|---|
|---|---|---|
|---|6--|---|
|4--|6--|6--| x4
|4--|4--|6--|
|2--|---|4--|

|-------------------------------|
|-------------------------------|
|-------------------------------|
|----------------4-4-4-4-4-4-4-4|
|3-3-3-3-3-3-3-3-4-4-4-4-4-4-4-4|
|1-1-1-1-1-1-1-1-2-2-2-2-2-2-2-2|
 . . . . . . . . . . .

Guitar 2
|----------|
|----------|
|8~-----b10|
|----------|
|----------|
|----------|

|9--|---|9--|11-|
|x--|9--|x--|x--|
|6--|x--|6--|8--|
|---|6--|---|---| x2
|---|---|---|---|
|---|---|---|---|

|-------------------------------|
|-------------------------------|
|5-5-5-5-5-5-5-5-6-6-6-6-6-6-6-6|
|-------------------------------|
|-------------------------------|
|-------------------------------|
 . . . . . . . . 

###Breakdown###
[01:55 > 02:01]

Guitar 1
|--------|--------|-------|-------|
|--------|--------|-------|-------|
|--------|--------|6-6-6-6|-------|
|8---8---|4---4---|6-6-6-6|6-6-6-6|
|8---8---|4---4---|4-4-4-4|6-6-6-6|
|6---6---|2---2---|-------|4-4-4-4|

Guitar 2
|--------|--------|-------|-------|
|--------|--------|-------|-------|
|6v~-----|5v~-----|6-5----|-------|
|--------|--------|----8-6|8-6---6|
|--------|--------|-------|----8--|
|--------|--------|-------|-------|

###Double Chorus###
[02:01 > end]

(Both Guitars end on A# chord)

D|8~
A|8~
E|6~



Tap to rate this tab
# A B C D E F G H I J K L M N O P Q R S T U V W X Y Z