Song name
# A B C D E F G H I J K L M N O P Q R S T U V W X Y Z

You Me At Six - Trophy Eyes tab

RHYTHM GUITAR ONLY! First ever tab on UG, all figured out by ear but I think it's pretty 
fairly straight-forward :) If you spot anything I've missed or got any questions, gimme 
shout by my UG profile page :)Username spamsam35 :)

* - palm mute
~ - let ring
/ - slide
s - stop note ringing

Intro/Chorus: (1's, not 11's)

E-------------------------------------------------------------------------|
B-------------------------------------------------------------------------|
G-------------------------------------------------------------------------|
D-11111111111111119999999999999999444444444444444466666666999999991~~~~~~~|
A-11111111111111119999999999999999444444444444444466666666999999991~~~~~~~|
D-11111111111111119999999999999999444444444444444466666666999999991~~~~~~~|

Verse: (Wait till a whole bar has gone)(13'S, NOT 1'S AND 3'S)

E-------------------------------------------------------------------------|
B-------------------------------------------------------------------------|
G-------------------------------------------------------------------------|
D-----------------------------------------------------|13~~~~~~-----------|
A-----------------------------------------------------|13~~~~~~-----------|
D-131313131313131313131313131313139999999999999999-X2-|13~~~~~~-----------|
  * * * * * * * * * * * * * * * * ****************

Intro/Chorus:

E-------------------------------------------------------------------------|
B-------------------------------------------------------------------------|
G-------------------------------------------------------------------------|
D-1111111111111111999999999999999944444444444444446666666699999999----|1~~|
A-1111111111111111999999999999999944444444444444446666666699999999-X2-|1~~|
D-1111111111111111999999999999999944444444444444446666666699999999----|1~~|

Verse: (13's and 11's)
E-------------------------------------------------------------------------|
B-------------------------------------------------------------------------|
G-------------------------------------------------------------------------|
D-----------------------------------------------------13-11-9~~-9-11-13---|
A-----------------------------------------------------13-11-9~~-9-11-13---|
D-131313131313131313131313131313139999999999999999-X2-13-11-9~~-9-11-13---|
  * * * * * * * * * * * * * * * * ****************                   s

[---Intro/Chorus---] X2

Bridge: (First 2 times round of this is done on bass, don't be fooled like me!)

E-------------------------------------------------------------------------|
B-------------------------------------------------------------------------|
G-------------------------------------------------------------------------|
D-11\3-4-66666666---|-11\3-4-6666\-|-11\3-4-66666666-11\3-4-6-6-6-6-------|
A-11\3-4-66666666-X3|-11\3-4-6666\-|-11\3-4-66666666-11\3-4-6-6-6-6-------|
D-11\3-4-66666666---|-11\3-4-6666\-|-11\3-4-66666666-11\3-4-6-6-6-6-------|
                                                            s s s s
E-------------------------------------------------------------------------|
B-------------------------------------------------------------------------|
G-------------------------------------------------------------------------|
D-11\3-4-66666666---------------------------------------------------------|
A-11\3-4-66666666-X2------------------------------------------------------|
D-11\3-4-66666666---------------------------------------------------------|

[---Intro/Chorus---] X2

Outro: (last teeny bit)

E-------------------------------------------------------------------------|
B-------------------------------------------------------------------------|
G-------------------------------------------------------------------------|
D-1~~~~~~~~~~~~~~-1-------------------------------------------------------|
A-1~~~~~~~~~~~~~~-1-------------------------------------------------------|
D-1~~~~~~~~~~~~~~-1-------------------------------------------------------|
                  S
Tap to rate this tab
# A B C D E F G H I J K L M N O P Q R S T U V W X Y Z