Young Guns - Weight Of The World tab

Hey guys, i havent worked out the whole tab yet but here is the intro which is probably 
best part of the song to play.

Remember, it is in Drop C and has some delay on it.

D|--------10-------13----------------------------------------------------|
A|---11--------11-------11--13---11------11--11--11--11--10--10--10--10--|
F|-12--12----12--12---12--12---12--12--12--12--12--12--12--12--12--12----| x2
C|-----------------------------------------------------------------------|
G|-----------------------------------------------------------------------|
C|-----------------------------------------------------------------------|

on second repeat, instead of
D|----------------------------------|
A|---11--11--11--11--10--10--10--10-|
F|-12--12--12--12--12--12--12--12---|

it is simply

D|------------------------------------------------|
A|11-11-11-11-11-11-11-11-10-10-10-10-10-10-10-10-|
F|------------------------------------------------|

After that the intro is repeated again but there are slides up to the 12 fret in the 
tuned G string (F).

Chorus chords are

D|----------|
A|----------|
F|----------|
C|-5--8--1--|
G|-5--8--1--|
C|-5--8--1--|
Tap to rate this tab
 
# A B C D E F G H I J K L M N O P Q R S T U V W X Y Z