Young Money - Bedrock tab

Young Money
"Bedrock"
Tab written by: Itzzterra

This is a pretty straight foward way of playing this song. It sounds decent with some 
distortion and if you can sync up with the melody and singing, it will sound really good. 
a quick tab put together by ear.


/ = Slide


[Riff 1] 4x

e:------------------------------------------------------------------------|
B:------------------------------------------------------------------8-----|
G:--------------------------------------12-8-12-8-10-7-10-7-8-5-8-5--8-5-8|
D:-5-8-5-8-5-8-8-12-8-12-8-12-8-12-8-12-----------------------------------|
A:------------------------------------------------------------------------|
E:------------------------------------------------------------------------|

[Lloyd Vocals]

e:------------------------------------------------------------------------|
B:------------------------------------------------------------------------|
G:-10/12-8-10-8-8-8-8-8-10/12-8-10-8-8-8-8-8-10/12-8-10--8--8-8-8---------|
D:------------------------------------------------------8--------8--------|
A:------------------------------------------------------------------------|
E:------------------------------------------------------------------------|

[cont.]

e:------------------------------------------------------------------------|
B:------------------------------------------------------------------------|
G:-8-8-8-8-8--8-8-8-10/12-10/8--------------------------------------------|
D:----------8-------------------------------------------------------------|
A:------------------------------------------------------------------------|
E:------------------------------------------------------------------------|


[Finish]

e:------------------------------------------------------------------------|
B:------------------------------------------------------------------------|
G:-8-10/12-10----8-10-8----8-10/12-10----8-10-8---------------------------|
D:----------------8-----------------------8-------------------------------|
A:------------------------------------------------------------------------|
E:------------------------------------------------------------------------|
Tap to rate this tab
 
# A B C D E F G H I J K L M N O P Q R S T U V W X Y Z