Song name
# A B C D E F G H I J K L M N O P Q R S T U V W X Y Z

Young Money - Bedrock tab

E||---------------------------------------------------------------|
B||---------------------------------------------------------------|
G||---------------------------------------------------------------|
D||--------------------------3---3---3---3-----5---5----3---3-----|
A||----------------------------5---5---5---5-----6---6---5---5----|
E||-4--6--4--6--4--6--4--6----------------------------------------|

--------------------------------|
--------------------------------|
--------------------------------|
----------------5---------------|
--6--3--6--3------6--3--6-------|
--------------------------------|
Tap to rate this tab
 
# A B C D E F G H I J K L M N O P Q R S T U V W X Y Z