Song name
# A B C D E F G H I J K L M N O P Q R S T U V W X Y Z

Younger Brother - Bedtime Story tab

e|-12----14/10----7\12----14/10----7\--------|
B|-12---------------12-----------------------|
G|-12---------------12-----------------------|
D|-------------------------------------------|
A|-------------------------------------------|
E|-------------------------------------------|

And so on until ending:

e|-5--2--0--|
B|-3--3--0--|
G|-4--2--0--|
D|----------|
A|----------|
E|----------|

http://youngerbrother.co.uk/
http://www.twistedmusic.com/
Tap to rate this tab
# A B C D E F G H I J K L M N O P Q R S T U V W X Y Z