Song name
# A B C D E F G H I J K L M N O P Q R S T U V W X Y Z

Yovee - Intimate Controversy tab

-------------------------------------------------------------------------------
			     Intimate Controversy - Yovee
-------------------------------------------------------------------------------
Tabbed by:Cody K
Email:Cody_kavanaugh@hotmail.com

Tuning:E A D G B e
     1N7R0
e|---------------------------------------------------------------------------|
B|-3-3-3-2-2-2-3-3-3-5-5-5---------------------------------------------------|
G|-2-2-2-2-2-2-3-3-3-5-5-5--/9-8-9-8-9/11-10-9-10-9-7------------------------|
D|-0-0-0-0-0-0-0-0-0-0-0-0---------------------------------------------------|
A|---------------------------------------------------------------------------|
E|---------------------------------------------------------------------------|

e|---------------------------------------------------------------------------|
B|----------------------------------------------play-these-real-quick-like---|
G|-/2-5-5-5-5-2-5-5-5-5-2-5-5-5-5-2-5-5-5-5--[11-x6--11-x6--9-x6--7-x3-7-7-7]|
D|---------------------------------------------------------------------------|
A|---------------------------------------------------------------------------|
E|---------------------------------------------------------------------------|

e|---------------------------------------------------------------------------|
B|---------------------------------------------------------------------------|
G|-/2-5-5-5-5-2-5-5-5-5-2-5-5-5-5-2-5-5-5-5----------------------------------|
D|---------------------------------------------------------------------------|
A|---------------------------------------------------------------------------|
E|---------------------------------------------------------------------------|



| /  slide up
| \  slide down
| h  hammer-on
| p  pull-off
| ~  vibrato
| +  harmonic
| x  Mute note
===============================================================================
Tap to rate this tab
# A B C D E F G H I J K L M N O P Q R S T U V W X Y Z