Yuck - Shook Down tab

From their self-titled debut album (2011)
A great band who don't get enough credit for their songwriting and should be huge!

I watched loads of youtube videos to tab this and I'm pretty sure this is how they play it :)

Intro/Verse:
Rhythm:
	C	                   D	               G 	            Em9	     Em7
e|------------------------------------3--3-3--3-3-3------2-2--0-0-0-|
B|------------------------------------0--0-0--0-0-0--3-3-3-3--3-3-3-|
G|-----0-----0-----------0-----0------0--0-0--0-0-0--0-0-0-0--0-0-0-|
D|---2-----2-----2-----4-----4--------0--0-0--0-0-0--0-0-0-0--0-0-0-|
A|-3-----3-----3---3/5-----5-----5-0--2--2-2--2-2-2--2-2-2-2--2-2-2-|
E|------------------------------------3--3-3--3-3-3-----------------|

Lead:
   C                                  D    G         D    G
e|-----3-----3-----------3-----3------5----7--7-7-7--5----7--7-7-7--|
B|---5-----5-----5-----5-----5-----5--7----8--8-8-8--7----8--8-8-8--|
G|-5-----5-----5-----5-----5-----5----7----7--7-7-7--7----7--7-7-7--|
D|------------------------------------------------------------------|
A|------------------------------------------------------------------|
E|------------------------------------------------------------------|
 | C                      	           D	   G	       Gsus4  G
e|-----3-----3-----------3-----3------5----7--7-7-7--8-8---7--7-7-7-|
B|---5-----5-----5-----5-----5-----5--7----8--8-8-8--8-8---8--8-8-8-|
G|-5-----5-----5-----5-----5-----5----7----7--7-7-7--7-7---7--7-7-7-|
D|------------------------------------------------------------------|
A|------------------------------------------------------------------|
E|------------------------------------------------------------------|

Chorus:
Rhythm & Lead: 
   C             D	            G    	   G/Gb   Em9       Em7
e|-0--0-0--0-0-0-2--2h3-2-2-2-----3-3----3-3------2-2--0-0-0-|
B|-1--1-1--1-1-1-3--3---3-3-3-----0-0----0-0--3-3-3-3--3-3-3-|
G|-0--0-0--0-0-0-2--2---2-2-2--0--0-0-0--0-0--0-0-0-0--0-0-0-|
D|-2--2-2--2-2-2-0--0---0-0-0--0--0-0-0--0-0--0-0-0-0--0-0-0-|
A|-3--3-3--3-3-3-0--0---0-0-0--2--2-2-2--2-2--2-2-2-2--2-2-2-|
E|-----------------------------3--3-3-2--2-2-----------------|
 | C             D	            G   	   G/Gb    E9
e|-0--0-0--0-0-0-2--2h3-2-2-2-----3-3----3-3------2-----2----|
B|-1--1-1--1-1-1-3--3---3-3-3-----0-0----0-0----0-0---0-0-0--|
G|-0--0-0--0-0-0-2--2---2-2-2-----0-0----0-0--1-1-1---1-1-1--|
D|-2--2-2--2-2-2-0--0---0-0-0--0--0-0-0--0-0--0-0-0-------0--|
A|-3--3-3--3-3-3-0--0---0-0-0--2--2-2-2--2-2--2-2------------|
E|-----------------------------3--3-3-2--2-2-----------------|
 | Cadd9         D	            G    	          Em9       Em7
e|-0--0-0--0-0-0-2--2h3-2-2-2--3--3-3--3-3-3------2-2--0-0-0-|
B|-3--3-3--3-3-3-3--3---3-3-3--0--0-0--0-0-0--3-3-3-3--3-3-3-|
G|-0--0-0--0-0-0-2--2---2-2-2--0--0-0--0-0-0--0-0-0-0--0-0-0-|
D|-2--2-2--2-2-2-0--0---0-0-0--0--0-0--0-0-0--0-0-0-0--0-0-0-|
A|-3--3-3--3-3-3-0--0---0-0-0--2--2-2--2-2-2--2-2-2-2--2-2-2-|
E|-----------------------------3--3-3--3-3-3-----------------|
 | C/B           C              D
e|------0----0------0-0----0----2--------------2-2-2----------|
B|-1--1-1--1-1-1-1--1-1--1-1-1--3--------------3-3-3----------|
G|-0--0-0--0-0-0-0--0-0--0-0-0--2--------------2-2-2----------|
D|-2--2----2-2-2-2--2-2--2-2-2--0--------------0-0-0----------|
A|-2-------2-----3--3-3--3-3-3--0--------------0-0-0----------|
E|------------------------------------------------------------|
The lead sometimes plucks notes from the chords during the chorus but the
basic pattern is exactly the same.

Outro:
Rhythm:
   Cadd9         Em             G             D
e|-0--0-0--0-0-0-0--0-0--0-0-0--3--3-3--3-3-3-2--2-2--2-2-2--|
B|-3--3-3--3-3-3-0--0-0--0-0-0--0--0-0--0-0-0-3--3-3--3-3-3--|
G|-0--0-0--0-0-0-0--0-0--0-0-0--0--0-0--0-0-0-2--2-2--2-2-2--|
D|-2--2-2--2-2-2-2--2-2--2-2-2--0--0-0--0-0-0-0--0-0--0-0-0--|
A|-3--3-3--3-3-3-2--2-2--2-2-2--2--2-2--2-2-2-0--0-0--0-0-0--|
E|------------------------------3--3-3--3-3-3----------------|

Lead:
  Csus2 G/C     Dsus4 D         Gsus2               D
e|-3--3-3--3-3-3---------------------------------------------------|
B|-3--3-3--3-3-3-8--8-7--7-7-7---------10--10-10-10-5--5-5--5-5-5--|
G|-5--5-4--4-4-4-7--7-7--7-7-7--12--12-12--12-12-12-5--5-5--5-5-5--|
D|-5--5-5--5-5-5-7--7-7--7-7-7--12--12-12--12-12-12-5--5-5--5-5-5--|
A|-3--3-3--3-3-3-5--5-5--5-5-5--10--10-10--10-10-10-3--3-3--3-3-3--|
E|-----------------------------------------------------------------|

Solo:
e|------------------------------|--------------------------------------|
B|---15--15--17-----------------|---15--15--17-------------------------|
G|/16--16--------14b16r14-12-12-|/16--16-------14b16-16-16-16-16-16r14-|
D|------------------------------|--------------------------------------|
A|------------------------------|--------------------------------------|
E|------------------------------|--------------------------------------|

e|------------------------------|--------------------------------------|----|
B|---15--15--17-----------------|---15--15--17-------------------------|----|
G|/16--16--------14b16r14-12-12-|/16--16-------14b16-16-16-16-16-16r14-|12\-|
D|------------------------------|--------------------------------------|----|
A|------------------------------|--------------------------------------|----|
E|------------------------------|--------------------------------------|----|
(you can play the notes on the 12th fret of the G string at the 17th fret of the
D string but that's not how he plays it live)

Solo: (live Version)
The first bit is the same but the 2nd time round he adds some stuff
e|------------------------------------------------|
B|---15--15--17-----------------------------------|
G|/16--16--------14b16r14-12-12------12h14p12--12-|
D|------------------------------12h14--------12---|
A|------------------------------------------------|
E|------------------------------------------------|

e|-------------------------------------------------------|----|
A|---15--15--17----------------17------------------------|----|
D|/16--16-------14b16-1-----16----16r14--12-14b16r14-12--|12\-|
G|-----------------------------------------------------14|----|
B|-------------------------------------------------------|----|
E|-------------------------------------------------------|----|

Single guitar outro chords:
e|-0--0-0--0-0-0--3-3-3--2-2-2--3--3-3--3-3-3--2--2-2--2-2-2--|
B|-3--3-1--1-1-0--3-3-3--3-3-3--3--3-3--3-3-3--3--3-3--3-3-3--|
G|-0--0-0--0-0-0--0-0-0--0-0-0--0--0-0--0-0-0--2--2-2--2-2-2--|
D|-2--2-2--2-2-2--0-0-0--0-0-0--0--0-0--0-0-0--0--0-0--0-0-0--|
A|-3--3-3--3-3-2--2-2-2--2-2-2--2--2-2--2-2-2--0--0-0--0-0-0--|
E|------------------------------3--3-3--3-3-3-----------------|
Just a cheat way I figured out of making it sound like both guitars
Tap to rate this tab
 
# A B C D E F G H I J K L M N O P Q R S T U V W X Y Z