Guitaretab - guitar tabs
Song name
# A B C D E F G H I J K L M N O P Q R S T U V W X Y Z
Home / Y / Yui / Find Me tab

Yui - Find Me tab

Boyce Avenue  Find Me
Tabbed by Alejandro Manzano of Boyce Avenue

www.myspace.com/boyceavenue

Acoustic Guitar

Key of F#

Tuning: C# G# C# F# A# C#

^ = hammer on
P = pull off
X = mute

Intro:
----0------0--------------------0------0-------------0^2--|
---0-0----0-0-----3------3-----0-0----0-0-----3---------0-|
--0---0------0---0-0----0-0---0---0------0---0-0----0-----|
---------7------4---4--4---4---------7------4---4--4------|
-3---------------------------3----------------------------|
--------5------0------2-------------5------0------0-------|

----0------0--------------------0------0-----------|
---0-0----0-0-----3------3-----0-0----0-0-----3----|
--0---0------0---0-0----0-0---0---0------0---0-0---|
---------7------4---4--4---4---------7------4---4--|
-3---------------------------3-------------------5-|
--------5------0------2-------------5------0-------|

Verse:
----0----0--------------0----0-----------|
---0----0-----3----3---0----0-----3----3-|
--0----------0----0---0----------0----0--|
-------7----4----4---------7----4----4---|
-3-------------------3-------------------|
------5----0----2---------5----0----0----|

----0----0--------------0----0-------------------|
---0----0-----3----3---0----0-----3--------------|
--0----------0----0---0----------0---4-2-0-------|
-------7----4----4---------7----4----------4-2-0-|
-3-------------------3---------------------------|
------5----0----2---------5----0-----------------|

Pre-chorus:
----0------0--------------------0------0------------------|
---0-0----0-0-----3------3-----0-0----0-0-----3------3----|
--0---0------0---0-0----0-0---0---0------0---0-0----0-0---|
---------7------4---4--4---4---------7------4---4--4---4--|
-3---------------------------3----------------------------|
--------5------0------2-------------5------0------0-------|

----0------0-----------------------0---------0-|
---0-0----0-0-----3------3--------0---------7--|
--0---0------0---0-0----0-0----0-0-------0-0---|
---------7------4---4--4---4--2-2-------4-4----|
-3---------------------------3---------5-------|
--------5------0------2------------------------|
[ Tab from: http://www.guitaretab.com/y/yui/168371.html ]
Chorus:
-0---0---0---0---0---0---0---0-|
-0---3---0---0---0---3---0---0-|
-0---2---0---0---0---2---0---0-|
-2---0---2---0---2---0---2---2-|
-2---0---3---x---2---0---3---3-|
-2---0-------5---2---0---------|

-0---0---0---0---0---0---0-----0-|
-0---3---0---0---0---3---0-----3-|
-0---2---0---0---0---2---0-----2-|
-2---0---2---0---2---0---2-----0-|
-2---0---3---x---2---0---3-----0-|
-2---0-------5---2---0---------0-|

-0---0---0---0---0---0---0---0-------------|
-0---3---0---0---0---3---0---3-------------|
-0---2---0---0---0---2---0---2-------------| (last chorus only)
-2---0---2---2---2---0---2---0- (4:08-4:18-|
-2---0---3---3---2---0---3---0-------------|
-2---0-----------2---0-------0-------------|

Turnaround:
----0------0--------------------0------0-----------|
---0-0----0-0-----3------3-----0-0----0-0-----3----|
--0---0------0---0-0----0-0---0---0------0---0-0---|
---------7------4---4--4---4---------7------4---4--|
-3---------------------------3-------------------5-|
--------5------0------2-------------5------0-------|

Bridge:
----4------4------4---------------|
---3-3----3-3----3-3--------------|
--0---0--0---0--0---0-------------|
-2------2------2------2p0---------|
--------------------------3-2-0---|
--------------------------------5-|

---------------------------------------------------------|
----3------3------3------3------3------3------3------3---|
---0-0----0-0----0-0----0-0----0-0----0-0----0-0----0-0--|
--4---4--4---4--4---4--4---4--4---4--4---4--4---4--4---4-|
-------------------------------------------0------2------|
-2------2------2------4------5------5--------------------|

---------------------------------------------------------|
----3------3------3------3------3------3------3------3---|
---0-0----0-0----0-0----0-0----0-0----0-0----0-0----0-0--|
--4---4--4---4--4---4--4---4--4---4--4---4--4---4--4---4-|
-------------------------------------------0------2------|
-2------2------2------4------5------5--------------------|

-0---0---0---0---0---0-|
-3---5---3---5---0---3-|
-0---0---0---0---0---2-|
-2---4---2---4---2---0-|
-3---5---3---5---3---0-|
---------------------0-|

Outro:
----0------0--------------------0------0-----0-|
---0-0----0-0-----3------3-----0-0----0-0----3-|
--0---0------0---0-0----0-0---0---0------0---2-|
---------7------4---4--4---4---------7-------0-|
-3---------------------------3---------------0-|
--------5------0------2-------------5--------0-|
Related for Find Me tab