Song name
# A B C D E F G H I J K L M N O P Q R S T U V W X Y Z

Yuna Ito - Endless Story tab

Endless Story
(NANA - REIRA starring YUNA ITO)

tabbed by: HT
jestermarionette@yahoo.com
thisisht@yahoo.com

AIM SN:
HazardousTonsils
HT the Jester

+ + + +

A               E           F#m
If you haven't changed your mind
        E         F#m  E  A
soba ni ite hoshii yo  Tonight

          E   F#m           E
tsuyogaru koto ni tsukareta no
F#m    E        A           E
osanasugita no  Everytime I think about you baby
A        E     F#m
ima nara ieru  I miss you
A               E       A
It's so hard to say I'm sorry


       E          C#m              E        C#m
* tatoeba  dareka no tame ja naku  anata no tame ni
A     E       A
utaitai  kono uta wo
     E    C#m                  E        C#m
owaranai  story  tsudzuku kono kagayaki ni
F#m     G#m        A  E       A
Always  tsutaetai  zutto eien ni

[SOLO I]

E ------------------------------------------------------------------|
B --10--9-10-12-9---------10-12----10--9-10-12-/15-15-17--14h12h14--|
G ----------------9-7-6-9-------------------------------------------|
D ------------------------------------------------------------------|
A ------------------------------------------------------------------|
E ------------------------------------------------------------------|

Memories of our time together
kesanaide  kono mama  don't go away

atatakaku tokedashite  tashikameru no
yasashisa no shizuku  kono mune ni hirogatteku
setsunai hodo ni  I'm missin' you
kasaneta te  hanasanaide

tatoeba  kanau nara  mou ichido anata no tame ni
utaitai  kono uta wo
owaranai  story  taema nai itoshisa de
tell me why  oshiete yo  zutto eien ni

[SOLO II]

E ---------------------------------------------------------------------------------|
B --16-15-11----------------11------11-15-16--13-15-17-/21--19-17-15-14--14-15-17--|
G -----------12--12-10-8-10----12--------------------------------------------------|
D ---------------------------------------------------------------------------------|
A ---------------------------------------------------------------------------------|
E ---------------------------------------------------------------------------------|

* repeat

[SOLO I]
Tap to rate this tab
# A B C D E F G H I J K L M N O P Q R S T U V W X Y Z