Song name
# A B C D E F G H I J K L M N O P Q R S T U V W X Y Z

Yves Larock - Rise Up tab

Yves Larock - Rise up


yeah it looks like that :

E:-------12---10--------10---12----|
B:-----------------13--------------|
G:---------------------------------|
D:---------------------------------|
A:---------------------------------|
E:---------------------------------|

E:-------12---10--------10---------|
B:-----------------13--------12----|
G:---------------------------------|
D:---------------------------------|
A:---------------------------------|
E:---------------------------------|

E:-------12---10----------10---10---|
B:------------------13--------------|
G:----------------------------------|
D:----------------------------------|
A:----------------------------------|
E:----------------------------------|

E:-------12---10--------------------|
B:-----------------13---10----------|
G:----------------------------------|
D:----------------------------------|
A:----------------------------------|
E:----------------------------------|
Tap to rate this tab
 
# A B C D E F G H I J K L M N O P Q R S T U V W X Y Z