Song name
# A B C D E F G H I J K L M N O P Q R S T U V W X Y Z

Zadruga - Dok Bil Sam Mlad chords

Highlighted       Show chord diagrams
Zadruga
DOK BIL SAM MLAD

D
Dok bil sem jos tolike mlad
A
Da pameti nisam imel ni male
G                           D       A
Da s kamenem aute sajbu sam gadjal
D                              A
Da v cistah hlaca po njive sam tekal
G                     D       A
I lucke crijesnje sem zerl        X2

D
I denes mi veli mati
A
Poglej, koliki bik si
G                         D        A
Kaj si v zivotu do zdej napravil
D                      A
Da nije nas bile, za grabu bi spal
G                 D        A
I suhe grajnje bi zerl            X2


prebiranje kroz stvar:
  D        D7       A         A7
e--------2---3----------------------------|
h-----3--------3-----------2---3----------|
g---2------2-----2-------2-------2--------|
d-0--------------------2-----2-----2------|
a-------------------0---------------------|
E-----------------------------------------|

  G        Fmaj7      D          A
e----------------------------2----------------|
h-------0----h1----0-------3---3---------2----|
g-----0---------h2-------2-------------2---2--|
d---0------0----------0--------------2--------|
a---------------------------------0-----------|
E-3-------------------------------------------|
Tap to rate this tab
# A B C D E F G H I J K L M N O P Q R S T U V W X Y Z