Song name
# A B C D E F G H I J K L M N O P Q R S T U V W X Y Z

Zakk Wylde - Just Killing Time tab

Zakk Wylde's Black Label Society - Just Killing Time

Tabbed By - Pantera-Addict
Email - pantera-addict@hotmail.co.uk

If I Have Made Any Mistakes Please E-mail Me!!



e----------|----------|----------|----------|
b----------|----------|----------|----------|
g----------|----------|----------|----------|
d--5-~~~~--|--4-~~~~--|--2-~~~~--|--0-------|
a----------|----------|----------|----------|
e----------|----------|----------|----------|


e----------|----------|----------|
b----------|-----3--5-|--2-~--0--|
g-----4----|--4-------|----------|
d----------|----------|----------|
a--5-------|----------|----------|
e----------|----------|----------|



Key - ~ Vibarato.
    - ~~~~ Heavy Vibarato.


This Is My First Tab By The Way!!  =D
Tap to rate this tab
# A B C D E F G H I J K L M N O P Q R S T U V W X Y Z