Song name
# A B C D E F G H I J K L M N O P Q R S T U V W X Y Z

Zamfir - The Lonely Shepherd tab

The Lonely Shepherd by James Last & George Zamphir

Arranged for classical guitar in B minor by John Stewart



|----------------------------------------------------------------------|
|--------3-5-3-2-3-------3-5-3-2-3-------3-5-3-2-3-------3-5-3-2-3-----|
|------4---------------4---------------4---------------4---------------|
|----4---------------4---------------4---------------4-----------------|
|--2---------------2---------------2---------------2---------------(2)-|
|----------------------------------------------------------------------|


|---------------------------2-7-5-7--------(7)--7/5-5-3-5---------------2---|
|-o-----------------2-2-3-3---3---------------------2---------2-------5---3-|
|-------------4---4-----------5---------5-----5-----2-------2-------2-------|
|-----4---4---------------------------3---3-----------------------2-----0---|
|-o-2---2---2---2-----------------------------------2-2---2-----2-----------|
|-----------------------------3-3---3-------3-------------------------------|


|-----2-----2-------------------|
|-------3-------------2-------o-|
|-2-------2-------3-------3-----|
|---0-----------4---4---4---4---|
|-----------------------------o-|
|-------------2-------2---------|


|-------------------------------------5-------------------3-3-0-3-2-2----------|
|-5p3-3---3---3-----3---------------7-5---3-3-------------------------1----1---|
|-----------------------4---4---7-----4---------0-----0-----------------2----2-|
|-------------------------------9-----------------0---------------0------------|
|-------2---2---0h2---2---2-----9-------2-----2-----2---2-----------------0----|
|-----------------------------7---7--------------------------------------------|


|-5---3-2-----2-------------------------------------------------------10-9-7-|
|-2---3---3-------------2-------5p3-3---3---3-----3-----------7--------------|
|-2---2-----2-------3-------3-------------------------4---4---7-7---7--------|
|-2-----0---------4---4---4---4-------------------------------7---7----------|
|-------------------------------------2---2---0h2---2---2--------------------|
|---------------2-------2-----------------------------------7--------------3-|


|-----------------4-----------------2p0-2-1----------------|
|-0-----0-----0-5---5-----5-------5-2-----2p0-2----------3-|
|---0-----0-----6-----6-------6-----3-----0--------------4-|
|---------------7-------7-------7---------4--------------4-|
|-------------------0-------0-------2--------------5-4-2---|
|-----3-----3------------------------------------1---------|


|----------------------------------------------------------------------|
|--------3-5-3-2-3-------3-5-3-2-3-------3-5-3-2-3-------3-5-3-2-3-----|
|------4---------------4---------------4---------------4---------------|
|----4---------------4---------------4---------------4-----------------|
|--2---------------2---------------2---------------2---------------(2)-|
|----------------------------------------------------------------------|

If you like this tab, please rate it!
It is a work in progress so please feel free to offer corrections/suggestions :)

Thanks to upguitar2 and fenderinter90 without whom I would never have been inspired to 
give this a go. Thanks guys :)
Tap to rate this tab
 
# A B C D E F G H I J K L M N O P Q R S T U V W X Y Z