Song name
# A B C D E F G H I J K L M N O P Q R S T U V W X Y Z

Zappa Frank - Montana tab

Salvador:
Montana
Tabbed by:Fretburner214
Tuning:E B G D A E
Key:
/-Slide
h-Hammer-on
p-Pull-off

intro
e:-5-5-5-5-5-5-5-5-5-5-5-5-5--|
b:-6-6-6-6-6-6-6-6-5-5-5-5-5--|
g:-7-7-7-7-7-7-7-7-6-6-6-6-6--|
d:-7-7-7-7-7-7-7-7-7-7-7-7-7--|
a:-5-5-5-5-5-5-5-5-7-7-7-7-7--|
e:-5-5-5-5-5-5-5-5-5-5-5-5-5--|

solo
e:-4-6-4h6-3------------------------------------------------------|
b:-----------6-4-6-4h6-3-------3-4-6-4h6-3------------------------|
g:-----------------------5-4-5-------------5-4--------------------|
d:---------------------------------------------6-5-3--------------|
a:---------------------------------------------------6-5-5h6-3----|
e:----------------------------------------------------------6-4-3-|

e:-5-5-5--|
b:-5-5-5--|
g:-6-6-6--|
d:-7-7-7--|
a:-7-7-7--|
e:-5-5-5--|


Tap to rate this tab
# A B C D E F G H I J K L M N O P Q R S T U V W X Y Z