Song name
# A B C D E F G H I J K L M N O P Q R S T U V W X Y Z

Zebrahead - Mental Health tab



e|------18--16--14--13~----13-14-13----13-14--------------|
B|---14---14--14--14----14----------14--------------------|
G|--------------------------------------------------------|
D|--------------------------------------------------------|
A|--------------------------------------------------------|
E|--------------------------------------------------------|

e|------18--16--14--19-18-16-14-16-18-16-14----------------|
B|---14---14--14--14---------------------------------------|
G|---------------------------------------------------------|
D|---------------------------------------------------------|
A|---------------------------------------------------------|
E|---------------------------------------------------------|
Tap to rate this tab
# A B C D E F G H I J K L M N O P Q R S T U V W X Y Z