Song name
# A B C D E F G H I J K L M N O P Q R S T U V W X Y Z

Zebrahead - Strength tab

Band:   Zebrahead
Song:   Strength
Album:  MFZB

tabbed by: anthony calderone

Intro: guitar 1
---------------------------|
---------------------------|
--11-7--6-7--13--14--------|
--x--x--x-x--xx--xx--------|
--9--5--4-5--11--12--------|
---------------------------|

Intro: guitar 2
--------------------------|
--------------------------|
-7---7---7--9-------------|
-7---7---7--9-------------|
-5---5---5--7-------------|
--------------------------|

Pre-verse: guitar 1
------------------------------------------------------------|
------------------------------------------------------------|
-111111-777-111111-777-11-7---666--777--999--777--6--7------|
-xxxxx--xxx-xxxxx--xxx-x--x---xxx--xxx--xxx--xxx--x--x------|
-9-9-9--555-9-9-9--555-9--5---444--555--777--555--4--5------|
------------------------------------------------------------|

Verse: both guitars
----------------------------|
----------------------------|
-77--7----------------------|
-77--7-99--9-77--7----------|
-55--5-99--9-77--7----------|
-------77--7-55--5----------|

Pre-chorus:
--------------------------------------------------------------------------------|
--------------------------------------------------------------------------------|
--------------------------------------------------------------------------------|
--------------------------------------------------------------------------------|
9-9-9----------9-9-9----------9-9----------------------7-7-7--------------------|
------10-10-10-------10-10-10-----10-10-9-9-9-10-10-10-------10-10-10-9-9-10-10-|
_______________________________________PM_______________________________________

Chorus:
---------------------------------------|
---------------------------------------|
-777777777777--------------------------|
-777777777777--999999--777777----------|
-555555555555--999999--777777----------|
---------------777777--555555----------|

I'm still working on it. i'm pretty sure the rythem guitar does the same chords the bass does
Tap to rate this tab
 
# A B C D E F G H I J K L M N O P Q R S T U V W X Y Z