Song name
# A B C D E F G H I J K L M N O P Q R S T U V W X Y Z

Zebrahead - Anthem tab

sounds brilliant, hope yous like

e:-------------------------------------------------1212--1313---|
b:------13-12--------------------------13-12--12-13----13----13-|
g:--7/12-----14-12-----14-12----------------14------------------|
d:----------------15-14-----15-14-12-10-------------------------|
a:--------------------------------------------------------------|
e:--------------------------------------------------------------|

e:-12-13-15--12-13-15--12-13---|
b:---------13--------13-----13-|
g:-----------------------------|
d:-----------------------------|
a:-----------------------------|
e:-----------------------------|
Tap to rate this tab
# A B C D E F G H I J K L M N O P Q R S T U V W X Y Z